  0
SECTION
  2
HEADER
  9
$ACADVER
  1
AC1009
  9
$INSBASE
 10
45.34641329870147
 20
95.95906518727184
 30
0.0
  9
$EXTMIN
 10
45.34641329870147
 20
95.95906518727184
 30
0.0
  9
$EXTMAX
 10
630.0930014869348
 20
652.5279355343518
 30
0.0
  9
$LIMMIN
 10
0.0
 20
0.0
  9
$LIMMAX
 10
420.0
 20
297.0
  9
$ORTHOMODE
 70
     1
  9
$REGENMODE
 70
     1
  9
$FILLMODE
 70
     1
  9
$QTEXTMODE
 70
     0
  9
$MIRRTEXT
 70
     0
  9
$DRAGMODE
 70
     2
  9
$LTSCALE
 40
1.0
  9
$OSMODE
 70
     0
  9
$ATTMODE
 70
     1
  9
$TEXTSIZE
 40
3.5
  9
$TRACEWID
 40
0.05
  9
$TEXTSTYLE
  7
STANDARD
  9
$CLAYER
  8
0
  9
$CELTYPE
  6
BYLAYER
  9
$CECOLOR
 62
   256
  9
$DIMSCALE
 40
1.0
  9
$DIMASZ
 40
2.5
  9
$DIMEXO
 40
1.0
  9
$DIMDLI
 40
8.0
  9
$DIMRND
 40
0.0
  9
$DIMDLE
 40
0.0
  9
$DIMEXE
 40
2.0
  9
$DIMTP
 40
0.1
  9
$DIMTM
 40
0.1
  9
$DIMTXT
 40
3.5
  9
$DIMCEN
 40
2.0
  9
$DIMTSZ
 40
0.0
  9
$DIMTOL
 70
     0
  9
$DIMLIM
 70
     0
  9
$DIMTIH
 70
     0
  9
$DIMTOH
 70
     0
  9
$DIMSE1
 70
     0
  9
$DIMSE2
 70
     0
  9
$DIMTAD
 70
     1
  9
$DIMZIN
 70
     8
  9
$DIMBLK
  1

  9
$DIMASO
 70
     0
  9
$DIMSHO
 70
     0
  9
$DIMPOST
  1

  9
$DIMAPOST
  1

  9
$DIMALT
 70
     0
  9
$DIMALTD
 70
     2
  9
$DIMALTF
 40
25.39999999999999
  9
$DIMLFAC
 40
1.0
  9
$DIMTOFL
 70
     1
  9
$DIMTVP
 40
0.0
  9
$DIMTIX
 70
     0
  9
$DIMSOXD
 70
     0
  9
$DIMSAH
 70
     0
  9
$DIMBLK1
  1

  9
$DIMBLK2
  1

  9
$DIMSTYLE
  2
*UNNAMED
  9
$DIMCLRD
 70
     0
  9
$DIMCLRE
 70
     0
  9
$DIMCLRT
 70
     0
  9
$DIMTFAC
 40
1.0
  9
$DIMGAP
 40
0.09
  9
$LUNITS
 70
     2
  9
$LUPREC
 70
     3
  9
$SKETCHINC
 40
0.1
  9
$FILLETRAD
 40
20.0
  9
$AUNITS
 70
     0
  9
$AUPREC
 70
     3
  9
$MENU
  1

  9
$ELEVATION
 40
0.0
  9
$PELEVATION
 40
0.0
  9
$THICKNESS
 40
0.0
  9
$LIMCHECK
 70
     0
  9
$BLIPMODE
 70
     0
  9
$CHAMFERA
 40
0.0
  9
$CHAMFERB
 40
0.0
  9
$SKPOLY
 70
     1
  9
$TDCREATE
 40
2448804.370939004
  9
$TDUPDATE
 40
2449393.433793055
  9
$TDINDWG
 40
0.0289445602
  9
$TDUSRTIMER
 40
0.0289445602
  9
$USRTIMER
 70
     1
  9
$ANGBASE
 50
0.0
  9
$ANGDIR
 70
     0
  9
$PDMODE
 70
     3
  9
$PDSIZE
 40
2.0
  9
$PLINEWID
 40
0.0
  9
$COORDS
 70
     2
  9
$SPLFRAME
 70
     0
  9
$SPLINETYPE
 70
     6
  9
$SPLINESEGS
 70
     8
  9
$ATTDIA
 70
     1
  9
$ATTREQ
 70
     1
  9
$HANDLING
 70
     1
  9
$HANDSEED
  5
2B5
  9
$SURFTAB1
 70
     6
  9
$SURFTAB2
 70
     6
  9
$SURFTYPE
 70
     6
  9
$SURFU
 70
     6
  9
$SURFV
 70
     6
  9
$UCSNAME
  2
MB-BKS
  9
$UCSORG
 10
0.0
 20
0.0
 30
0.0
  9
$UCSXDIR
 10
1.0
 20
0.0
 30
0.0
  9
$UCSYDIR
 10
0.0
 20
1.0
 30
0.0
  9
$PUCSNAME
  2

  9
$PUCSORG
 10
0.0
 20
0.0
 30
0.0
  9
$PUCSXDIR
 10
1.0
 20
0.0
 30
0.0
  9
$PUCSYDIR
 10
0.0
 20
1.0
 30
0.0
  9
$USERI1
 70
     0
  9
$USERI2
 70
     3
  9
$USERI3
 70
    15
  9
$USERI4
 70
     0
  9
$USERI5
 70
     0
  9
$USERR1
 40
0.0
  9
$USERR2
 40
1.0
  9
$USERR3
 40
0.0
  9
$USERR4
 40
1.0
  9
$USERR5
 40
0.0
  9
$WORLDVIEW
 70
     1
  9
$SHADEDGE
 70
     3
  9
$SHADEDIF
 70
    70
  9
$TILEMODE
 70
     1
  9
$MAXACTVP
 70
    16
  9
$PINSBASE
 10
0.0
 20
0.0
 30
0.0
  9
$PLIMCHECK
 70
     0
  9
$PEXTMIN
 10
1.000000000000000E+20
 20
1.000000000000000E+20
 30
1.000000000000000E+20
  9
$PEXTMAX
 10
-1.000000000000000E+20
 20
-1.000000000000000E+20
 30
-1.000000000000000E+20
  9
$PLIMMIN
 10
0.0
 20
0.0
  9
$PLIMMAX
 10
12.0
 20
9.0
  9
$UNITMODE
 70
     0
  9
$VISRETAIN
 70
     0
  9
$PLINEGEN
 70
     0
  9
$PSLTSCALE
 70
     0
  9
$TREEDEPTH
 70
  3020
  9
$DWGCODEPAGE
  3
undefined
  0
ENDSEC
  0
SECTION
  2
TABLES
  0
TABLE
  2
VPORT
 70
     2
  0
VPORT
  2
*ACTIVE
 70
     0
 10
0.0
 20
0.0
 11
1.0
 21
1.0
 12
429.5801033093964
 22
397.1592035431132
 13
0.0
 23
0.0
 14
7.0
 24
7.0
 15
0.0
 25
0.0
 16
0.0
 26
0.0
 36
1.0
 17
0.0
 27
0.0
 37
0.0
 40
602.4002767116828
 41
1.275675675675675
 42
50.0
 43
0.0
 44
0.0
 50
0.0
 51
0.0
 71
     0
 72
 10000
 73
     1
 74
     0
 75
     0
 76
     0
 77
     0
 78
     0
  0
ENDTAB
  0
TABLE
  2
LTYPE
 70
    10
  0
LTYPE
  2
AUSGEZOGEN
 70
    64
  3
Solid line
 72
    65
 73
     0
 40
0.0
  0
LTYPE
  2
STRICHPUNKT
 70
    64
  3
____ . ____ . ____ . ____ . ____ . ____ . ____
 72
    65
 73
     4
 40
15.0
 49
10.0
 49
-2.5
 49
0.0
 49
-2.5
  0
LTYPE
  2
STRICHPUNKTA
 70
    64
  3
__ . __ . __
 72
    65
 73
     4
 40
3.6
 49
2.399999999999999
 49
-0.6
 49
0.0
 49
-0.6
  0
LTYPE
  2
STRICHA
 70
    64
  3
- - - - - 
 72
    65
 73
     2
 40
1.5
 49
1.2
 49
-0.3
  0
LTYPE
  2
STRICH
 70
    64
  3
-- -- -- -- -- -- -- -- -- -- -- -- -- -- -- 
 72
    65
 73
     2
 40
6.25
 49
5.0
 49
-1.25
  0
LTYPE
  2
ITEM-STRICH
 70
    64
  3
- - - - -
 72
    65
 73
     2
 40
1.5
 49
1.2
 49
-0.3
  0
LTYPE
  2
ITEM-STRICHGR
 70
    64
  3
-- -- -- -- -- 
 72
    65
 73
     2
 40
6.25
 49
5.0
 49
-1.25
  0
LTYPE
  2
ITEM-STRICHPUNKT
 70
    64
  3
__ . __ . __
 72
    65
 73
     4
 40
3.599999999999999
 49
2.399999999999999
 49
-0.6
 49
0.0
 49
-0.6
  0
LTYPE
  2
ITEM-STRICHPGR
 70
    64
  3
____ . ____ . ____ . ____ . ____ . ____ . ____
 72
    65
 73
     4
 40
15.0
 49
10.0
 49
-2.5
 49
0.0
 49
-2.5
  0
LTYPE
  2
CONTINUOUS
 70
     0
  3
Solid line
 72
    65
 73
     0
 40
0.0
  0
ENDTAB
  0
TABLE
  2
LAYER
 70
    26
  0
LAYER
  2
0
 70
    64
 62
     7
  6
AUSGEZOGEN
  0
LAYER
  2
2A
 70
     0
 62
     7
  6
STRICHPUNKT
  0
LAYER
  2
7A
 70
     0
 62
     4
  6
STRICHPUNKTA
  0
LAYER
  2
3A
 70
     0
 62
     6
  6
STRICHA
  0
LAYER
  2
8
 70
     0
 62
     1
  6
AUSGEZOGEN
  0
LAYER
  2
7
 70
     0
 62
     4
  6
STRICHPUNKT
  0
LAYER
  2
6
 70
     0
 62
     2
  6
AUSGEZOGEN
  0
LAYER
  2
5
 70
     0
 62
     3
  6
AUSGEZOGEN
  0
LAYER
  2
4
 70
     0
 62
     3
  6
AUSGEZOGEN
  0
LAYER
  2
3
 70
     0
 62
     6
  6
STRICH
  0
LAYER
  2
2
 70
     0
 62
     5
  6
AUSGEZOGEN
  0
LAYER
  2
1
 70
     0
 62
    15
  6
AUSGEZOGEN
  0
LAYER
  2
RAHM2
 70
     0
 62
     3
  6
AUSGEZOGEN
  0
LAYER
  2
RAHM3
 70
     0
 62
     7
  6
AUSGEZOGEN
  0
LAYER
  2
RAHM5
 70
     0
 62
     7
  6
AUSGEZOGEN
  0
LAYER
  2
KLIN
 70
     0
 62
     9
  6
AUSGEZOGEN
  0
LAYER
  2
INFO
 70
     0
 62
     4
  6
AUSGEZOGEN
  0
LAYER
  2
ITEM_50
 70
    64
 62
     7
  6
AUSGEZOGEN
  0
LAYER
  2
ITEM_35
 70
     0
 62
     2
  6
AUSGEZOGEN
  0
LAYER
  2
ITEM_25
 70
    64
 62
     3
  6
AUSGEZOGEN
  0
LAYER
  2
ITEM_HILFE
 70
    64
 62
     3
  6
AUSGEZOGEN
  0
LAYER
  2
ITEM_INFO
 70
    64
 62
     4
  6
AUSGEZOGEN
  0
LAYER
  2
ITEM_STP
 70
    64
 62
     4
  6
ITEM-STRICHPUNKT
  0
LAYER
  2
ITEM_STPG
 70
    64
 62
     4
  6
ITEM-STRICHPGR
  0
LAYER
  2
ITEM_GSTR
 70
    64
 62
     6
  6
ITEM-STRICH
  0
LAYER
  2
ITEM_GSTRG
 70
    64
 62
     6
  6
ITEM-STRICHGR
  0
ENDTAB
  0
TABLE
  2
STYLE
 70
     5
  0
STYLE
  2
STANDARD
 70
    64
 40
0.0
 41
1.0
 50
0.0
 71
     0
 42
3.5
  3
iso
  4

  0
STYLE
  2
1
 70
     0
 40
0.0
 41
1.0
 50
0.0
 71
     0
 42
28.017851
  3
txt
  4

  0
STYLE
  2
2
 70
     0
 40
0.0
 41
1.0
 50
0.0
 71
     0
 42
28.017851
  3
monotxt
  4

  0
STYLE
  2
3
 70
     0
 40
0.0
 41
0.8
 50
0.0
 71
     0
 42
28.017851
  3
simplex
  4

  0
STYLE
  2
4
 70
     0
 40
0.0
 41
1.0
 50
0.0
 71
     0
 42
28.017851
  3
italic
  4

  0
ENDTAB
  0
TABLE
  2
VIEW
 70
     5
  0
VIEW
  2
1
 70
     0
 40
146.0
 10
113.5
 20
206.0
 41
207.0
 11
0.0
 21
0.0
 31
1.0
 12
0.0
 22
0.0
 32
0.0
 42
50.0
 43
0.0
 44
0.0
 50
0.0
 71
     0
  0
VIEW
  2
2
 70
     0
 40
128.0
 10
309.5
 20
218.0
 41
193.0
 11
0.0
 21
0.0
 31
1.0
 12
0.0
 22
0.0
 32
0.0
 42
50.0
 43
0.0
 44
0.0
 50
0.0
 71
     0
  0
VIEW
  2
3
 70
     0
 40
154.0
 10
127.0
 20
89.0
 41
220.0
 11
0.0
 21
0.0
 31
1.0
 12
0.0
 22
0.0
 32
0.0
 42
50.0
 43
0.0
 44
0.0
 50
0.0
 71
     0
  0
VIEW
  2
4
 70
     0
 40
155.0
 10
311.0
 20
77.5
 41
218.0
 11
0.0
 21
0.0
 31
1.0
 12
0.0
 22
0.0
 32
0.0
 42
50.0
 43
0.0
 44
0.0
 50
0.0
 71
     0
  0
VIEW
  2
5
 70
     0
 40
123.0
 10
207.0
 20
149.5
 41
184.0
 11
0.0
 21
0.0
 31
1.0
 12
0.0
 22
0.0
 32
0.0
 42
50.0
 43
0.0
 44
0.0
 50
0.0
 71
     0
  0
ENDTAB
  0
TABLE
  2
UCS
 70
     1
  0
UCS
  2
MB-BKS
 70
     0
 10
0.0
 20
0.0
 30
0.0
 11
1.0
 21
0.0
 31
0.0
 12
0.0
 22
1.0
 32
0.0
  0
ENDTAB
  0
TABLE
  2
APPID
 70
     1
  0
APPID
  2
ACAD
 70
    64
  0
ENDTAB
  0
TABLE
  2
DIMSTYLE
 70
     0
  0
ENDTAB
  0
ENDSEC
  0
SECTION
  2
BLOCKS
  0
BLOCK
  8
0
  5
B3
  2
92063008561189
 70
    64
 10
0.0
 20
0.0
 30
0.0
  3
92063008561189
  0
LINE
  8
ITEM_50
  5
B4
 10
0.0
 20
0.0
 30
0.0
 11
160.0
 21
0.0
 31
0.0
  0
LINE
  8
ITEM_50
  5
B5
 10
160.0
 20
0.0
 30
0.0
 11
160.0
 21
88.0
 31
0.0
  0
LINE
  8
ITEM_50
  5
B6
 10
160.0
 20
88.0
 30
0.0
 11
0.0
 21
88.0
 31
0.0
  0
LINE
  8
ITEM_50
  5
B7
 10
0.0
 20
88.0
 30
0.0
 11
0.0
 21
0.0
 31
0.0
  0
LINE
  8
ITEM_50
  5
B8
 10
16.00000000000001
 20
0.0
 30
0.0
 11
16.00000000000001
 21
88.0
 31
0.0
  0
LINE
  8
ITEM_50
  5
B9
 10
24.00000000000001
 20
88.0
 30
0.0
 11
24.00000000000001
 21
0.0
 31
0.0
  0
LINE
  8
ITEM_50
  5
BA
 10
56.00000000000001
 20
0.0
 30
0.0
 11
56.00000000000001
 21
88.0
 31
0.0
  0
LINE
  8
ITEM_50
  5
BB
 10
64.00000000000001
 20
88.0
 30
0.0
 11
64.00000000000001
 21
0.0
 31
0.0
  0
LINE
  8
ITEM_50
  5
BC
 10
96.00000000000001
 20
0.0
 30
0.0
 11
96.00000000000001
 21
88.0
 31
0.0
  0
LINE
  8
ITEM_50
  5
BD
 10
104.0
 20
88.0
 30
0.0
 11
104.0
 21
0.0
 31
0.0
  0
LINE
  8
ITEM_50
  5
BE
 10
136.0
 20
0.0
 30
0.0
 11
136.0
 21
88.0
 31
0.0
  0
LINE
  8
ITEM_50
  5
BF
 10
144.0
 20
88.0
 30
0.0
 11
144.0
 21
0.0
 31
0.0
  0
ENDBLK
  8
0
  5
C0
  0
BLOCK
  8
0
  5
C1
  2
MB-INFO
 70
    66
 10
0.0
 20
0.0
 30
0.0
  3
MB-INFO
  0
ATTDEF
  8
ITEM_INFO
  5
C2
 10
3.750837039791271
 20
-2.035179277449222
 30
0.0
 40
3.5
  1

  3
Bezeichnung (1)
  2
MB-BEZ1
 70
     1
  0
ATTDEF
  8
ITEM_INFO
  5
C3
 10
3.750837039791271
 20
-7.868512610782556
 30
0.0
 40
3.5
  1

  3
Bezeichnung (2)
  2
MB-BEZ2
 70
     1
  0
ATTDEF
  8
ITEM_INFO
  5
C4
 10
3.750837039791271
 20
-13.70184594411588
 30
0.0
 40
3.5
  1
item GmbH
  3
Lieferant (1)
  2
MB-LIE1
 70
     1
  0
ATTDEF
  8
ITEM_INFO
  5
C5
 10
3.750837039791271
 20
-19.53517927744922
 30
0.0
 40
3.5
  1

  3
Lieferant (2)
  2
MB-LIE2
 70
     1
  0
ATTDEF
  8
ITEM_INFO
  5
C6
 10
3.750837039791271
 20
-25.36851261078255
 30
0.0
 40
3.5
  1

  3
Material (1)
  2
MB-MAT1
 70
     1
  0
ATTDEF
  8
ITEM_INFO
  5
C7
 10
3.750837039791271
 20
-31.20184594411588
 30
0.0
 40
3.5
  1

  3
Material (2)
  2
MB-MAT2
 70
     1
  0
ATTDEF
  8
ITEM_INFO
  5
C8
 10
3.764897737590588
 20
-37.19375316218494
 30
0.0
 40
3.5
  1
0.0
  3
L„nge
  2
MB-LAE
 70
     1
  0
ATTDEF
  8
ITEM_INFO
  5
C9
 10
3.764897737590588
 20
-43.02708649551827
 30
0.0
 40
3.5
  1
0.0
  3
Breite
  2
MB-BRE
 70
     1
  0
ATTDEF
  8
ITEM_INFO
  5
CA
 10
3.764897737590588
 20
-48.86041982885161
 30
0.0
 40
3.5
  1
0
  3
Bestell-Nummer
  2
MB-NR
 70
     1
  0
LINE
  8
ITEM_INFO
  5
CB
 10
0.0
 20
1.472308310936917
 30
0.0
 11
0.0
 21
-1.472308310936917
 31
0.0
  0
LINE
  8
ITEM_INFO
  5
CC
 10
-1.275056399474328
 20
-0.7361541554684584
 30
0.0
 11
1.275056399474328
 21
0.7361541554684584
 31
0.0
  0
LINE
  8
ITEM_INFO
  5
CD
 10
-1.275056399474328
 20
0.7361541554684589
 30
0.0
 11
1.275056399474328
 21
-0.7361541554684589
 31
0.0
  0
ENDBLK
  8
0
  5
CE
  0
BLOCK
  8
0
  5
CF
  2
92063008562985
 70
    64
 10
0.0
 20
0.0
 30
0.0
  3
92063008562985
  0
LINE
  8
ITEM_50
  5
D0
 10
0.0
 20
0.0
 30
0.0
 11
87.99999999999998
 21
0.0
 31
0.0
  0
LINE
  8
ITEM_50
  5
D1
 10
87.99999999999998
 20
0.0
 30
0.0
 11
87.99999999999998
 21
40.0
 31
0.0
  0
LINE
  8
ITEM_50
  5
D2
 10
87.99999999999998
 20
40.0
 30
0.0
 11
0.0
 21
40.0
 31
0.0
  0
LINE
  8
ITEM_50
  5
D3
 10
0.0
 20
40.0
 30
0.0
 11
0.0
 21
0.0
 31
0.0
  0
LINE
  8
ITEM_50
  5
D4
 10
0.0
 20
16.0
 30
0.0
 11
87.99999999999998
 21
16.0
 31
0.0
  0
LINE
  8
ITEM_50
  5
D5
 10
87.99999999999998
 20
24.0
 30
0.0
 11
0.0
 21
24.0
 31
0.0
  0
ENDBLK
  8
0
  5
D6
  0
BLOCK
  8
0
  5
D7
  2
X0019674
 70
    64
 10
0.0
 20
0.0
 30
0.0
  3
X0019674
  0
LINE
  8
ITEM_STP
  5
D8
 10
58.83328699207011
 20
20.91304347825771
 30
0.0
 11
58.83328699207011
 21
11.95722018508513
 31
0.0
  0
LINE
  8
ITEM_STP
  5
D9
 10
58.83328699207011
 20
20.91304347825771
 30
0.0
 11
49.87746369889752
 21
20.91304347825771
 31
0.0
  0
LINE
  8
ITEM_STP
  5
DA
 10
58.83328699207011
 20
20.91304347825771
 30
0.0
 11
58.83328699207011
 21
29.8688667714303
 31
0.0
  0
LINE
  8
ITEM_STP
  5
DB
 10
58.83328699207011
 20
20.91304347825771
 30
0.0
 11
67.78911028524269
 21
20.91304347825771
 31
0.0
  0
CIRCLE
  8
ITEM_50
  5
DC
 10
58.83328699207011
 20
20.91304347825771
 30
0.0
 40
7.0
  0
CIRCLE
  8
ITEM_50
  5
DD
 10
58.83328699207011
 20
20.91304347825771
 30
0.0
 40
3.0
  0
LINE
  8
ITEM_50
  5
DE
 10
57.38991131909605
 20
23.41304347825771
 30
0.0
 11
55.94653564612198
 21
20.91304347825771
 31
0.0
  0
LINE
  8
ITEM_50
  5
DF
 10
55.94653564612198
 20
20.91304347825771
 30
0.0
 11
57.38991131909605
 21
18.41304347825771
 31
0.0
  0
LINE
  8
ITEM_50
  5
E0
 10
57.38991131909605
 20
18.41304347825771
 30
0.0
 11
60.27666266504417
 21
18.41304347825771
 31
0.0
  0
LINE
  8
ITEM_50
  5
E1
 10
60.27666266504417
 20
18.41304347825771
 30
0.0
 11
61.72003833801824
 21
20.91304347825771
 31
0.0
  0
LINE
  8
ITEM_50
  5
E2
 10
61.72003833801824
 20
20.91304347825771
 30
0.0
 11
60.27666266504418
 21
23.41304347825771
 31
0.0
  0
LINE
  8
ITEM_50
  5
E3
 10
60.27666266504418
 20
23.41304347825771
 30
0.0
 11
57.38991131909605
 21
23.41304347825771
 31
0.0
  0
LINE
  8
ITEM_STP
  5
E4
 10
7.480061504760298
 20
20.91304347826087
 30
0.0
 11
46.88006150476029
 21
20.91304347826087
 31
0.0
  0
LINE
  8
ITEM_50
  5
E5
 10
17.90395228974372
 20
24.91304347826052
 30
0.0
 11
16.88006150476029
 21
25.51304347826086
 31
0.0
  0
LINE
  8
ITEM_50
  5
E6
 10
17.90395228974302
 20
16.91304347826052
 30
0.0
 11
41.01506150476029
 21
16.91304347826052
 31
0.0
  0
LINE
  8
ITEM_50
  5
E7
 10
17.90395228974302
 20
16.91304347826052
 30
0.0
 11
16.88006150476029
 21
16.31304347826086
 31
0.0
  0
LINE
  8
ITEM_25
  5
E8
 10
19.38006150476064
 20
24.04804347826052
 30
0.0
 11
17.90395228974372
 21
24.91304347826052
 31
0.0
  0
LINE
  8
ITEM_25
  5
E9
 10
19.38006150476064
 20
17.77804347826052
 30
0.0
 11
17.90395228974302
 21
16.91304347826052
 31
0.0
  0
LINE
  8
ITEM_25
  5
EA
 10
41.88006150476029
 20
24.04804347826052
 30
0.0
 11
19.38006150476064
 21
24.04804347826052
 31
0.0
  0
LINE
  8
ITEM_25
  5
EB
 10
41.88006150476029
 20
17.77804347826052
 30
0.0
 11
19.38006150476064
 21
17.77804347826052
 31
0.0
  0
LINE
  8
ITEM_50
  5
EC
 10
41.01506150476029
 20
24.91304347826052
 30
0.0
 11
17.90395228974372
 21
24.91304347826052
 31
0.0
  0
LINE
  8
ITEM_50
  5
ED
 10
41.88006150476029
 20
24.04804347826052
 30
0.0
 11
41.01506150476029
 21
24.91304347826052
 31
0.0
  0
LINE
  8
ITEM_50
  5
EE
 10
41.88006150476029
 20
20.91304347826052
 30
0.0
 11
41.88006150476029
 21
24.04804347826052
 31
0.0
  0
LINE
  8
ITEM_50
  5
EF
 10
41.88006150476029
 20
17.77804347826052
 30
0.0
 11
41.88006150476029
 21
20.91304347826052
 31
0.0
  0
LINE
  8
ITEM_50
  5
F0
 10
41.01506150476029
 20
16.91304347826052
 30
0.0
 11
41.88006150476029
 21
17.77804347826052
 31
0.0
  0
LINE
  8
ITEM_50
  5
F1
 10
19.38006150476064
 20
16.91304347826052
 30
0.0
 11
19.38006150476064
 21
24.91304347826052
 31
0.0
  0
LINE
  8
ITEM_50
  5
F2
 10
41.01506150476029
 20
16.91304347826052
 30
0.0
 11
41.01506150476029
 21
24.91304347826052
 31
0.0
  0
LINE
  8
ITEM_GSTR
  5
F3
 10
17.18006150475886
 20
20.91304347826052
 30
0.0
 11
15.68006150475886
 21
23.91304347826052
 31
0.0
  0
LINE
  8
ITEM_GSTR
  5
F4
 10
15.68006150475886
 20
17.91304347826052
 30
0.0
 11
17.18006150475886
 21
20.91304347826052
 31
0.0
  0
LINE
  8
ITEM_GSTR
  5
F5
 10
12.48006150475995
 20
22.41304347826052
 30
0.0
 11
15.68006150475886
 21
22.41304347826052
 31
0.0
  0
LINE
  8
ITEM_GSTR
  5
F6
 10
12.48006150475995
 20
19.41304347826052
 30
0.0
 11
15.68006150475886
 21
19.41304347826052
 31
0.0
  0
LINE
  8
ITEM_GSTR
  5
F7
 10
15.68006150475886
 20
23.91304347826052
 30
0.0
 11
12.48006150475995
 21
23.91304347826052
 31
0.0
  0
LINE
  8
ITEM_GSTR
  5
F8
 10
15.68006150475886
 20
17.91304347826052
 30
0.0
 11
15.68006150475886
 21
23.91304347826052
 31
0.0
  0
LINE
  8
ITEM_GSTR
  5
F9
 10
12.48006150475995
 20
17.91304347826052
 30
0.0
 11
15.68006150475886
 21
17.91304347826052
 31
0.0
  0
LINE
  8
ITEM_50
  5
FA
 10
16.08006150475995
 20
13.91304347826087
 30
0.0
 11
16.08006150475995
 21
27.91304347826087
 31
0.0
  0
LINE
  8
ITEM_50
  5
FB
 10
16.88006150476029
 20
13.91304347826087
 30
0.0
 11
16.08006150475995
 21
13.91304347826087
 31
0.0
  0
LINE
  8
ITEM_50
  5
FC
 10
16.88006150476029
 20
27.91304347826087
 30
0.0
 11
16.88006150476029
 21
13.91304347826087
 31
0.0
  0
LINE
  8
ITEM_50
  5
FD
 10
16.08006150475995
 20
27.91304347826087
 30
0.0
 11
16.88006150476029
 21
27.91304347826087
 31
0.0
  0
LINE
  8
ITEM_50
  5
FE
 10
12.48006150475995
 20
17.91304347826087
 30
0.0
 11
12.48006150475995
 21
23.91304347826087
 31
0.0
  0
ARC
  8
ITEM_50
  5
FF
 10
19.48365142579508
 20
20.59627440719248
 30
0.0
 40
7.5
 50
200.9629465537418
 51
243.0114784378914
  0
ARC
  8
ITEM_50
  5
100
 10
19.48365142579508
 20
21.22981254932925
 30
0.0
 40
7.5
 50
116.9885215621085
 51
159.0370534462581
  0
ENDBLK
  8
0
  5
101
  0
BLOCK
  8
0
  5
102
  2
02680S1
 70
     0
 10
0.0
 20
0.0
 30
0.0
  3
02680S1
  0
POLYLINE
  8
ITEM_50
  5
103
 66
     1
 10
0.0
 20
0.0
 30
0.0
 70
     1
  0
VERTEX
  8
ITEM_50
  5
104
 10
158.0
 20
3.999999999999971
 30
0.0
 42
-0.414213562373095
  0
VERTEX
  8
ITEM_50
  5
105
 10
160.0
 20
1.999999999999971
 30
0.0
  0
VERTEX
  8
ITEM_50
  5
106
 10
160.0
 20
-0.0000000000000284
 30
0.0
  0
VERTEX
  8
ITEM_50
  5
107
 10
0.0
 20
0.0
 30
0.0
  0
VERTEX
  8
ITEM_50
  5
108
 10
0.0
 20
2.0
 30
0.0
 42
-0.4142135623730951
  0
VERTEX
  8
ITEM_50
  5
109
 10
2.0
 20
4.0
 30
0.0
  0
SEQEND
  8
ITEM_50
  5
10A
  0
ENDBLK
  8
0
  5
10B
  0
BLOCK
  8
0
  5
10C
  2
02680V1
 70
    64
 10
0.0
 20
0.0
 30
0.0
  3
02680V1
  0
POLYLINE
  8
ITEM_50
  5
10D
 66
     1
 10
0.0
 20
0.0
 30
0.0
 70
     1
  0
VERTEX
  8
ITEM_50
  5
10E
 10
-80.0
 20
10.0
 30
0.0
 42
-0.414213562373095
  0
VERTEX
  8
ITEM_50
  5
10F
 10
-76.0
 20
14.0
 30
0.0
  0
VERTEX
  8
ITEM_50
  5
110
 10
76.00000000000002
 20
13.99999999999997
 30
0.0
 42
-0.414213562373095
  0
VERTEX
  8
ITEM_50
  5
111
 10
80.00000000000002
 20
9.999999999999971
 30
0.0
  0
VERTEX
  8
ITEM_50
  5
112
 10
80.00000000000002
 20
-10.00000000000005
 30
0.0
 42
-0.414213562373095
  0
VERTEX
  8
ITEM_50
  5
113
 10
76.00000000000002
 20
-14.00000000000005
 30
0.0
  0
VERTEX
  8
ITEM_50
  5
114
 10
-76.00000000000002
 20
-14.0
 30
0.0
 42
-0.4142135623730951
  0
VERTEX
  8
ITEM_50
  5
115
 10
-80.00000000000002
 20
-10.0
 30
0.0
  0
SEQEND
  8
ITEM_50
  5
116
  0
LINE
  8
ITEM_25
  5
117
 10
-78.00000000000002
 20
-10.0
 30
0.0
 11
-78.0
 21
10.0
 31
0.0
  0
LINE
  8
ITEM_25
  5
118
 10
-76.0
 20
12.0
 30
0.0
 11
76.00000000000002
 21
11.99999999999997
 31
0.0
  0
LINE
  8
ITEM_25
  5
119
 10
78.00000000000002
 20
9.999999999999971
 30
0.0
 11
78.00000000000002
 21
-10.00000000000005
 31
0.0
  0
LINE
  8
ITEM_25
  5
11A
 10
76.00000000000002
 20
-12.00000000000005
 30
0.0
 11
-76.00000000000002
 21
-12.0
 31
0.0
  0
POINT
  8
ITEM_HILFE
  5
11B
 10
-80.00000000000143
 20
13.99999999999855
 30
0.0
  0
POINT
  8
ITEM_HILFE
  5
11C
 10
79.9999999999986
 20
13.99999999999852
 30
0.0
  0
POINT
  8
ITEM_HILFE
  5
11D
 10
79.9999999999986
 20
-14.00000000000147
 30
0.0
  0
POINT
  8
ITEM_HILFE
  5
11E
 10
-80.00000000000143
 20
-14.00000000000142
 30
0.0
  0
ENDBLK
  8
0
  5
11F
  0
BLOCK
  8
0
  5
120
  2
02680S2
 70
     0
 10
0.0
 20
0.0
 30
0.0
  3
02680S2
  0
POLYLINE
  8
ITEM_50
  5
121
 66
     1
 10
0.0
 20
0.0
 30
0.0
 70
     1
  0
VERTEX
  8
ITEM_50
  5
122
 10
28.0
 20
0.0
 30
0.0
 50
270.0
  0
VERTEX
  8
ITEM_50
  5
123
 10
28.0
 20
-2.0
 30
0.0
 42
-0.414213562373095
 50
270.0
  0
VERTEX
  8
ITEM_50
  5
124
 10
26.0
 20
-4.0
 30
0.0
 50
270.0
  0
VERTEX
  8
ITEM_50
  5
125
 10
2.0
 20
-4.0
 30
0.0
 42
-0.414213562373095
 50
270.0
  0
VERTEX
  8
ITEM_50
  5
126
 10
0.0
 20
-2.0
 30
0.0
 50
270.0
  0
VERTEX
  8
ITEM_50
  5
127
 10
0.0
 20
0.0
 30
0.0
 50
270.0
  0
SEQEND
  8
ITEM_50
  5
128
  0
ENDBLK
  8
0
  5
129
  0
BLOCK
  8
0
  5
12A
  2
X0033726
 70
    64
 10
0.0
 20
0.0
 30
0.0
  3
X0033726
  0
LINE
  8
ITEM_50
  5
12B
 10
175.9457456427569
 20
276.7856365298202
 30
0.0
 11
175.9457456427569
 21
268.7856365298202
 31
0.0
  0
LINE
  8
ITEM_50
  5
12C
 10
120.4457456427983
 20
276.7856365298202
 30
0.0
 11
120.4457456427983
 21
268.7856365298202
 31
0.0
  0
LINE
  8
ITEM_50
  5
12D
 10
122.6957456427814
 20
268.7856365298202
 30
0.0
 11
108.1957456427833
 21
268.7856365298202
 31
0.0
  0
LINE
  8
ITEM_50
  5
12E
 10
128.2457456427815
 20
276.7856365298202
 30
0.0
 11
168.1457456427814
 21
276.7856365298202
 31
0.0
  0
LINE
  8
ITEM_50
  5
12F
 10
112.1957456427833
 20
292.7856365298234
 30
0.0
 11
184.1957456427833
 21
292.7856365298234
 31
0.0
  0
LINE
  8
ITEM_50
  5
130
 10
108.1957456427833
 20
276.7856365298202
 30
0.0
 11
122.6957456427815
 21
276.7856365298202
 31
0.0
  0
LINE
  8
ITEM_50
  5
131
 10
168.1457456427814
 20
268.7856365298202
 30
0.0
 11
128.2457456427815
 21
268.7856365298202
 31
0.0
  0
LINE
  8
ITEM_50
  5
132
 10
173.6957456427815
 20
276.7856365298202
 30
0.0
 11
188.1957456427819
 21
276.7856365298202
 31
0.0
  0
LINE
  8
ITEM_50
  5
133
 10
188.1957456427819
 20
268.7856365298202
 30
0.0
 11
173.6957456427815
 21
268.7856365298201
 31
0.0
  0
LINE
  8
ITEM_STPG
  5
134
 10
148.1957456427826
 20
298.7035634858104
 30
0.0
 11
148.1957456427826
 21
247.0486980170605
 31
0.0
  0
LINE
  8
ITEM_STPG
  5
135
 10
103.962598329445
 20
272.7856365298814
 30
0.0
 11
192.4244109257898
 21
272.7856365298814
 31
0.0
  0
POINT
  8
ITEM_HILFE
  5
136
 10
188.1957456427608
 20
292.7856365298978
 30
0.0
  0
POINT
  8
ITEM_HILFE
  5
137
 10
188.1957456427607
 20
252.7856365298673
 30
0.0
  0
POINT
  8
ITEM_HILFE
  5
138
 10
108.1957456428021
 20
252.7856365298673
 30
0.0
  0
POINT
  8
ITEM_HILFE
  5
139
 10
108.1957456428021
 20
292.7856365298978
 30
0.0
  0
POINT
  8
ITEM_HILFE
  5
13A
 10
148.1957456427814
 20
272.7856365298825
 30
0.0
  0
POINT
  8
ITEM_HILFE
  5
13B
 10
148.1957456427815
 20
292.7856365298234
 30
0.0
  0
POINT
  8
ITEM_HILFE
  5
13C
 10
148.1957456427814
 20
252.7856365298661
 30
0.0
  0
POINT
  8
ITEM_HILFE
  5
13D
 10
188.1957456427607
 20
272.7856365298825
 30
0.0
  0
POINT
  8
ITEM_HILFE
  5
13E
 10
108.1957456428021
 20
272.7856365298825
 30
0.0
  0
LINE
  8
ITEM_50
  5
13F
 10
108.1957456428033
 20
288.7856365298966
 30
0.0
 11
108.1957456428033
 21
256.7856365298661
 31
0.0
  0
ARC
  8
ITEM_50
  5
140
 10
112.1957456428033
 20
256.7856365298661
 30
0.0
 40
4.0
 50
180.0
 51
270.0
  0
LINE
  8
ITEM_50
  5
141
 10
112.1957456428033
 20
252.7856365298661
 30
0.0
 11
184.1957456427619
 21
252.7856365298661
 31
0.0
  0
ARC
  8
ITEM_50
  5
142
 10
184.1957456427619
 20
256.7856365298661
 30
0.0
 40
4.0
 50
270.0
 51
0.0
  0
LINE
  8
ITEM_50
  5
143
 10
188.1957456427619
 20
256.7856365298661
 30
0.0
 11
188.1957456427619
 21
288.7856365298966
 31
0.0
  0
ARC
  8
ITEM_50
  5
144
 10
184.1957456427619
 20
288.7856365298966
 30
0.0
 40
4.0
 50
0.0
 51
90.0
  0
LINE
  8
ITEM_50
  5
145
 10
184.1957456427619
 20
292.7856365298966
 30
0.0
 11
112.1957456428033
 21
292.7856365298966
 31
0.0
  0
ARC
  8
ITEM_50
  5
146
 10
112.1957456428033
 20
288.7856365298966
 30
0.0
 40
4.0
 50
90.0
 51
180.0
  0
LINE
  8
ITEM_50
  5
147
 10
122.6957456427814
 20
286.7856365298775
 30
0.0
 11
128.2457456427815
 21
286.7856365298775
 31
0.0
  0
LINE
  8
ITEM_50
  5
148
 10
128.2457456427815
 20
286.7856365298775
 30
0.0
 11
128.2457456427815
 21
258.7856365298775
 31
0.0
  0
LINE
  8
ITEM_50
  5
149
 10
128.2457456427815
 20
258.7856365298775
 30
0.0
 11
122.6957456427814
 21
258.7856365298775
 31
0.0
  0
LINE
  8
ITEM_50
  5
14A
 10
122.6957456427814
 20
258.7856365298775
 30
0.0
 11
122.6957456427814
 21
286.7856365298775
 31
0.0
  0
LINE
  8
ITEM_50
  5
14B
 10
168.1457456427814
 20
286.7856365298775
 30
0.0
 11
173.6957456427815
 21
286.7856365298775
 31
0.0
  0
LINE
  8
ITEM_50
  5
14C
 10
173.6957456427815
 20
286.7856365298775
 30
0.0
 11
173.6957456427815
 21
258.7856365298775
 31
0.0
  0
LINE
  8
ITEM_50
  5
14D
 10
173.6957456427815
 20
258.7856365298775
 30
0.0
 11
168.1457456427814
 21
258.7856365298775
 31
0.0
  0
LINE
  8
ITEM_50
  5
14E
 10
168.1457456427814
 20
258.7856365298775
 30
0.0
 11
168.1457456427814
 21
286.7856365298775
 31
0.0
  0
POINT
  8
ITEM_HILFE
  5
14F
 10
108.1957456428021
 20
101.9682235253983
 30
0.0
  0
POINT
  8
ITEM_HILFE
  5
150
 10
188.1957456427607
 20
101.9682235253983
 30
0.0
  0
POINT
  8
ITEM_HILFE
  5
151
 10
148.1957456427814
 20
81.96822352538194
 30
0.0
  0
POINT
  8
ITEM_HILFE
  5
152
 10
148.1957456427814
 20
121.9682235253391
 30
0.0
  0
POINT
  8
ITEM_HILFE
  5
153
 10
148.1957456427814
 20
101.9682235253983
 30
0.0
  0
POINT
  8
ITEM_HILFE
  5
154
 10
108.1957456428021
 20
121.9682235254135
 30
0.0
  0
POINT
  8
ITEM_HILFE
  5
155
 10
108.1957456428021
 20
81.9682235253831
 30
0.0
  0
POINT
  8
ITEM_HILFE
  5
156
 10
188.1957456427607
 20
81.9682235253831
 30
0.0
  0
POINT
  8
ITEM_HILFE
  5
157
 10
188.1957456427607
 20
121.9682235254135
 30
0.0
  0
LINE
  8
ITEM_STPG
  5
158
 10
103.962598329445
 20
101.9682235253971
 30
0.0
 11
192.4244109257898
 21
101.9682235253971
 31
0.0
  0
LINE
  8
ITEM_STPG
  5
159
 10
148.1957456427825
 20
127.8861504813262
 30
0.0
 11
148.1957456427825
 21
76.23128501257636
 31
0.0
  0
CIRCLE
  8
ITEM_50
  5
15A
 10
176.19574564278
 20
101.968223525336
 30
0.0
 40
4.0
  0
CIRCLE
  8
ITEM_50
  5
15B
 10
160.19574564278
 20
101.968223525336
 30
0.0
 40
4.0
  0
LINE
  8
ITEM_50
  5
15C
 10
188.1957456427819
 20
97.96822352533601
 30
0.0
 11
153.19574564278
 21
97.96822352533601
 31
0.0
  0
LINE
  8
ITEM_50
  5
15D
 10
153.19574564278
 20
105.968223525336
 30
0.0
 11
188.1957456427819
 21
105.968223525336
 31
0.0
  0
LINE
  8
ITEM_50
  5
15E
 10
153.19574564278
 20
97.96822352533601
 30
0.0
 11
153.19574564278
 21
105.968223525336
 31
0.0
  0
LINE
  8
ITEM_50
  5
15F
 10
143.19574564278
 20
105.968223525336
 30
0.0
 11
143.19574564278
 21
97.96822352533601
 31
0.0
  0
LINE
  8
ITEM_50
  5
160
 10
143.19574564278
 20
97.96822352533601
 30
0.0
 11
108.1957456427832
 21
97.96822352533601
 31
0.0
  0
CIRCLE
  8
ITEM_50
  5
161
 10
136.19574564278
 20
101.968223525336
 30
0.0
 40
4.0
  0
CIRCLE
  8
ITEM_50
  5
162
 10
120.19574564278
 20
101.968223525336
 30
0.0
 40
4.0
  0
LINE
  8
ITEM_50
  5
163
 10
108.1957456427832
 20
105.968223525336
 30
0.0
 11
143.19574564278
 21
105.968223525336
 31
0.0
  0
LINE
  8
ITEM_50
  5
164
 10
112.1957456427832
 20
121.9682235253391
 30
0.0
 11
184.1957456427832
 21
121.9682235253391
 31
0.0
  0
LINE
  8
ITEM_50
  5
165
 10
108.1957456428032
 20
117.9682235254124
 30
0.0
 11
108.1957456428032
 21
85.96822352538194
 31
0.0
  0
ARC
  8
ITEM_50
  5
166
 10
112.1957456428032
 20
85.96822352538194
 30
0.0
 40
4.0
 50
180.0
 51
270.0
  0
LINE
  8
ITEM_50
  5
167
 10
112.1957456428032
 20
81.96822352538194
 30
0.0
 11
184.1957456427618
 21
81.96822352538194
 31
0.0
  0
ARC
  8
ITEM_50
  5
168
 10
184.1957456427618
 20
85.96822352538194
 30
0.0
 40
4.0
 50
270.0
 51
0.0
  0
LINE
  8
ITEM_50
  5
169
 10
188.1957456427618
 20
85.96822352538194
 30
0.0
 11
188.1957456427618
 21
117.9682235254124
 31
0.0
  0
ARC
  8
ITEM_50
  5
16A
 10
184.1957456427618
 20
117.9682235254124
 30
0.0
 40
4.0
 50
0.0
 51
90.0
  0
LINE
  8
ITEM_50
  5
16B
 10
184.1957456427618
 20
121.9682235254124
 30
0.0
 11
112.1957456428032
 21
121.9682235254124
 31
0.0
  0
ARC
  8
ITEM_50
  5
16C
 10
112.1957456428032
 20
117.9682235254124
 30
0.0
 40
4.0
 50
90.0
 51
180.0
  0
LINE
  8
ITEM_50
  5
16D
 10
237.1957456427273
 20
174.2856365287204
 30
0.0
 11
237.1957456427273
 21
170.885636529536
 31
0.0
  0
POINT
  8
ITEM_HILFE
  5
16E
 10
243.1957456427294
 20
137.785636529536
 30
0.0
  0
POINT
  8
ITEM_HILFE
  5
16F
 10
203.1957456427294
 20
137.785636529536
 30
0.0
  0
LINE
  8
ITEM_50
  5
170
 10
209.1957456427273
 20
172.2856365296557
 30
0.0
 11
203.1957456427294
 21
172.2856365296557
 31
0.0
  0
LINE
  8
ITEM_50
  5
171
 10
209.1957456427273
 20
170.885636529536
 30
0.0
 11
237.1957456427273
 21
170.885636529536
 31
0.0
  0
LINE
  8
ITEM_50
  5
172
 10
205.1957456427294
 20
172.2856365296557
 30
0.0
 11
205.1957456427273
 21
172.2856365296557
 31
0.0
  0
LINE
  8
ITEM_50
  5
173
 10
243.1957456427294
 20
172.2856365296557
 30
0.0
 11
237.1957456427273
 21
172.2856365296557
 31
0.0
  0
LINE
  8
ITEM_50
  5
174
 10
219.1957456427273
 20
149.6042433210606
 30
0.0
 11
219.1957456427273
 21
170.885636529536
 31
0.0
  0
LINE
  8
ITEM_50
  5
175
 10
227.1957456427273
 20
170.885636529536
 30
0.0
 11
227.1957456427273
 21
149.6042433210612
 31
0.0
  0
POINT
  8
ITEM_HILFE
  5
176
 10
223.1957456427273
 20
142.3496862092592
 30
0.0
  0
POINT
  8
ITEM_HILFE
  5
177
 10
223.1957456427273
 20
137.7856365294036
 30
0.0
  0
ARC
  8
ITEM_50
  5
178
 10
217.6957456427275
 20
139.2856365294037
 30
0.0
 40
1.5
 50
269.9999999999997
 51
0.0
  0
LINE
  8
ITEM_50
  5
179
 10
219.1957456427274
 20
139.2856365294037
 30
0.0
 11
219.1957456427274
 21
141.2856365294036
 31
0.0
  0
ARC
  8
ITEM_50
  5
17A
 10
218.1957456427274
 20
141.2856365294036
 30
0.0
 40
1.0
 50
0.0
 51
90.0
  0
LINE
  8
ITEM_50
  5
17B
 10
218.1957456427274
 20
142.2856365294036
 30
0.0
 11
214.11436567116
 21
142.2856365294036
 31
0.0
  0
ARC
  8
ITEM_50
  5
17C
 10
214.11436567116
 20
143.2856365294036
 30
0.0
 40
1.0
 50
144.0201994025274
 51
270.0
  0
ARC
  8
ITEM_50
  5
17D
 10
233.5357456427275
 20
129.1856365294039
 30
0.0
 40
24.99999999999986
 50
126.6419281412152
 51
144.0201994025266
  0
ARC
  8
ITEM_50
  5
17E
 10
221.0026893514629
 20
146.0356365294036
 30
0.0
 40
4.000000000000001
 50
90.00000000000122
 51
126.641928141216
  0
LINE
  8
ITEM_50
  5
17F
 10
221.0026893514628
 20
150.0356365294036
 30
0.0
 11
223.1957456427273
 21
150.0356365294036
 31
0.0
  0
LINE
  8
ITEM_50
  5
180
 10
223.1957456427273
 20
150.0356365294036
 30
0.0
 11
225.3888019339919
 21
150.0356365294036
 31
0.0
  0
ARC
  8
ITEM_50
  5
181
 10
225.3888019339919
 20
146.0356365294036
 30
0.0
 40
4.0
 50
53.35807185878537
 51
90.0
  0
ARC
  8
ITEM_50
  5
182
 10
212.855745642727
 20
129.1856365294039
 30
0.0
 40
25.00000000000005
 50
35.97980059747317
 51
53.35807185878464
  0
ARC
  8
ITEM_50
  5
183
 10
232.2771256142947
 20
143.2856365294036
 30
0.0
 40
1.0
 50
270.0
 51
35.97980059747258
  0
LINE
  8
ITEM_50
  5
184
 10
232.2771256142947
 20
142.2856365294036
 30
0.0
 11
228.1957456427273
 21
142.2856365294036
 31
0.0
  0
ARC
  8
ITEM_50
  5
185
 10
228.1957456427273
 20
141.2856365294036
 30
0.0
 40
1.0
 50
90.0
 51
180.0
  0
LINE
  8
ITEM_50
  5
186
 10
227.1957456427273
 20
141.2856365294036
 30
0.0
 11
227.1957456427273
 21
139.2856365294037
 31
0.0
  0
ARC
  8
ITEM_50
  5
187
 10
228.6957456427273
 20
139.2856365294037
 30
0.0
 40
1.499999999999992
 50
180.0
 51
270.0000000000002
  0
CIRCLE
  8
ITEM_50
  5
188
 10
223.1957456427273
 20
157.785636529536
 30
0.0
 40
3.5
  0
LINE
  8
ITEM_50
  5
189
 10
209.1957456427273
 20
170.885636529536
 30
0.0
 11
209.1957456427273
 21
174.2856365287204
 31
0.0
  0
LINE
  8
ITEM_50
  5
18A
 10
243.1957456427294
 20
172.2856365296557
 30
0.0
 11
243.1957456427294
 21
141.7856365294036
 31
0.0
  0
ARC
  8
ITEM_50
  5
18B
 10
239.1957456427294
 20
141.7856365294036
 30
0.0
 40
4.0
 50
270.0
 51
0.0
  0
LINE
  8
ITEM_50
  5
18C
 10
239.1957456427294
 20
137.7856365294036
 30
0.0
 11
228.6957456427273
 21
137.7856365294036
 31
0.0
  0
POINT
  8
ITEM_HILFE
  5
18D
 10
223.1957456427273
 20
177.785636529536
 30
0.0
  0
POINT
  8
ITEM_HILFE
  5
18E
 10
223.1957456427273
 20
217.785636529536
 30
0.0
  0
LINE
  8
ITEM_STPG
  5
18F
 10
223.1957456427255
 20
197.7856365295369
 30
0.0
 11
248.7137097342623
 21
197.7856365295365
 31
0.0
  0
LINE
  8
ITEM_STPG
  5
190
 10
223.1957456427255
 20
197.7856365295369
 30
0.0
 11
198.4326950771971
 21
197.7856365295377
 31
0.0
  0
LINE
  8
ITEM_50
  5
191
 10
237.1957456427273
 20
174.2856365287204
 30
0.0
 11
243.1957456427273
 21
174.2856365287203
 31
0.0
  0
LINE
  8
ITEM_50
  5
192
 10
209.1957456427273
 20
174.2856365287204
 30
0.0
 11
209.1957456427273
 21
177.885636529536
 31
0.0
  0
LINE
  8
ITEM_50
  5
193
 10
237.1957456427273
 20
221.2856365294575
 30
0.0
 11
243.1957456427294
 21
221.2856365294575
 31
0.0
  0
LINE
  8
ITEM_50
  5
194
 10
209.1957456427273
 20
221.2856365294575
 30
0.0
 11
209.1957456427273
 21
217.685636529536
 31
0.0
  0
POINT
  8
ITEM_HILFE
  5
195
 10
243.1957456427294
 20
197.785636529536
 30
0.0
  0
POINT
  8
ITEM_HILFE
  5
196
 10
203.1957456427294
 20
197.785636529536
 30
0.0
  0
POINT
  8
ITEM_HILFE
  5
197
 10
223.1957456427273
 20
197.785636529536
 30
0.0
  0
LINE
  8
ITEM_50
  5
198
 10
203.1957456427294
 20
221.2856365294575
 30
0.0
 11
209.1957456427273
 21
221.2856365294575
 31
0.0
  0
LINE
  8
ITEM_50
  5
199
 10
203.1957456427294
 20
174.2856365287204
 30
0.0
 11
209.1957456427273
 21
174.2856365287204
 31
0.0
  0
LINE
  8
ITEM_50
  5
19A
 10
219.1957456427273
 20
177.885636529536
 30
0.0
 11
219.1957456427273
 21
217.685636529536
 31
0.0
  0
LINE
  8
ITEM_50
  5
19B
 10
227.1957456427273
 20
217.6856365295359
 30
0.0
 11
227.1957456427273
 21
177.885636529536
 31
0.0
  0
LINE
  8
ITEM_50
  5
19C
 10
237.1957456427273
 20
177.885636529536
 30
0.0
 11
237.1957456427273
 21
174.2856365287204
 31
0.0
  0
LINE
  8
ITEM_50
  5
19D
 10
209.1957456427273
 20
177.885636529536
 30
0.0
 11
237.1957456427273
 21
177.885636529536
 31
0.0
  0
LINE
  8
ITEM_50
  5
19E
 10
237.1957456427273
 20
217.685636529536
 30
0.0
 11
237.1957456427273
 21
221.2856365294575
 31
0.0
  0
LINE
  8
ITEM_50
  5
19F
 10
209.1957456427273
 20
217.685636529536
 30
0.0
 11
237.1957456427273
 21
217.685636529536
 31
0.0
  0
LINE
  8
ITEM_STPG
  5
1A0
 10
223.1957456427255
 20
197.7856365295369
 30
0.0
 11
223.1957456427268
 21
241.6907471707178
 31
0.0
  0
LINE
  8
ITEM_STPG
  5
1A1
 10
223.1957456427255
 20
197.7856365295369
 30
0.0
 11
223.1957456427274
 21
135.4453084279307
 31
0.0
  0
LINE
  8
ITEM_50
  5
1A2
 10
217.6957456427275
 20
137.7856365294036
 30
0.0
 11
207.1957456427294
 21
137.7856365294036
 31
0.0
  0
ARC
  8
ITEM_50
  5
1A3
 10
207.1957456427294
 20
141.7856365294036
 30
0.0
 40
4.0
 50
180.0
 51
270.0
  0
LINE
  8
ITEM_50
  5
1A4
 10
203.1957456427294
 20
141.7856365294036
 30
0.0
 11
203.1957456427294
 21
172.2856365296557
 31
0.0
  0
LINE
  8
ITEM_50
  5
1A5
 10
243.1957456427294
 20
221.2856365294575
 30
0.0
 11
243.1957456427294
 21
174.2856365287203
 31
0.0
  0
LINE
  8
ITEM_50
  5
1A6
 10
203.1957456427294
 20
174.2856365287204
 30
0.0
 11
203.1957456427294
 21
221.2856365294575
 31
0.0
  0
LINE
  8
ITEM_50
  5
1A7
 10
237.1957456427273
 20
221.2856365294575
 30
0.0
 11
237.1957456427273
 21
223.2856365297235
 31
0.0
  0
POINT
  8
ITEM_HILFE
  5
1A8
 10
243.1957456427294
 20
237.785636529536
 30
0.0
  0
POINT
  8
ITEM_HILFE
  5
1A9
 10
203.1957456427294
 20
237.785636529536
 30
0.0
  0
LINE
  8
ITEM_50
  5
1AA
 10
205.1957456427294
 20
223.2856365297235
 30
0.0
 11
205.1957456427273
 21
223.2856365297235
 31
0.0
  0
LINE
  8
ITEM_50
  5
1AB
 10
243.1957456427273
 20
223.2856365297235
 30
0.0
 11
203.1957456427294
 21
223.2856365297235
 31
0.0
  0
POINT
  8
ITEM_HILFE
  5
1AC
 10
223.1957456427273
 20
237.7856365294036
 30
0.0
  0
POINT
  8
ITEM_HILFE
  5
1AD
 10
223.1957456427273
 20
233.221586849548
 30
0.0
  0
ARC
  8
ITEM_50
  5
1AE
 10
228.6957456427273
 20
236.2856365294035
 30
0.0
 40
1.5
 50
89.99999999999971
 51
180.0
  0
LINE
  8
ITEM_50
  5
1AF
 10
227.1957456427273
 20
236.2856365294035
 30
0.0
 11
227.1957456427273
 21
234.2856365294036
 31
0.0
  0
ARC
  8
ITEM_50
  5
1B0
 10
228.1957456427273
 20
234.2856365294036
 30
0.0
 40
1.0
 50
180.0
 51
270.0
  0
LINE
  8
ITEM_50
  5
1B1
 10
228.1957456427273
 20
233.2856365294036
 30
0.0
 11
232.2771256142947
 21
233.2856365294036
 31
0.0
  0
ARC
  8
ITEM_50
  5
1B2
 10
232.2771256142947
 20
232.2856365294036
 30
0.0
 40
1.0
 50
324.0201994025274
 51
90.0
  0
ARC
  8
ITEM_50
  5
1B3
 10
212.8557456427272
 20
246.3856365294032
 30
0.0
 40
24.99999999999986
 50
306.6419281412152
 51
324.0201994025266
  0
ARC
  8
ITEM_50
  5
1B4
 10
225.3888019339918
 20
229.5356365294036
 30
0.0
 40
4.000000000000001
 50
270.0000000000011
 51
306.641928141216
  0
LINE
  8
ITEM_50
  5
1B5
 10
225.3888019339918
 20
225.5356365294036
 30
0.0
 11
223.1957456427273
 21
225.5356365294036
 31
0.0
  0
LINE
  8
ITEM_50
  5
1B6
 10
223.1957456427273
 20
225.5356365294036
 30
0.0
 11
221.0026893514628
 21
225.5356365294036
 31
0.0
  0
ARC
  8
ITEM_50
  5
1B7
 10
221.0026893514628
 20
229.5356365294036
 30
0.0
 40
4.0
 50
233.3580718587853
 51
270.0
  0
ARC
  8
ITEM_50
  5
1B8
 10
233.5357456427277
 20
246.3856365294033
 30
0.0
 40
25.00000000000006
 50
215.9798005974731
 51
233.3580718587846
  0
ARC
  8
ITEM_50
  5
1B9
 10
214.1143656711599
 20
232.2856365294036
 30
0.0
 40
1.0
 50
90.0
 51
215.9798005974725
  0
LINE
  8
ITEM_50
  5
1BA
 10
214.1143656711599
 20
233.2856365294036
 30
0.0
 11
218.1957456427273
 21
233.2856365294036
 31
0.0
  0
ARC
  8
ITEM_50
  5
1BB
 10
218.1957456427273
 20
234.2856365294036
 30
0.0
 40
1.0
 50
270.0
 51
0.0
  0
LINE
  8
ITEM_50
  5
1BC
 10
219.1957456427273
 20
234.2856365294036
 30
0.0
 11
219.1957456427273
 21
236.2856365294036
 31
0.0
  0
ARC
  8
ITEM_50
  5
1BD
 10
217.6957456427273
 20
236.2856365294036
 30
0.0
 40
1.499999999999992
 50
0.0
 51
90.00000000000028
  0
LINE
  8
ITEM_50
  5
1BE
 10
209.1957456427273
 20
223.2856365297235
 30
0.0
 11
209.1957456427273
 21
221.2856365294575
 31
0.0
  0
LINE
  8
ITEM_50
  5
1BF
 10
203.1957456427294
 20
223.2856365297235
 30
0.0
 11
203.1957456427294
 21
233.7856365294036
 31
0.0
  0
ARC
  8
ITEM_50
  5
1C0
 10
207.1957456427294
 20
233.7856365294036
 30
0.0
 40
4.0
 50
90.0
 51
180.0
  0
LINE
  8
ITEM_50
  5
1C1
 10
207.1957456427294
 20
237.7856365294036
 30
0.0
 11
239.1957456427294
 21
237.7856365294036
 31
0.0
  0
ARC
  8
ITEM_50
  5
1C2
 10
239.1957456427294
 20
233.7856365294036
 30
0.0
 40
4.0
 50
0.0
 51
90.0
  0
LINE
  8
ITEM_50
  5
1C3
 10
241.1957456427294
 20
223.2856365297235
 30
0.0
 11
241.1957456427294
 21
221.2856365294575
 31
0.0
  0
LINE
  8
ITEM_50
  5
1C4
 10
243.1957456427294
 20
233.7856365294036
 30
0.0
 11
243.1957456427294
 21
223.2856365297235
 31
0.0
  0
LINE
  8
ITEM_50
  5
1C5
 10
205.1957456427294
 20
221.2856365294575
 30
0.0
 11
205.1957456427294
 21
223.2856365297235
 31
0.0
  0
LINE
  8
ITEM_50
  5
1C6
 10
205.1957456427294
 20
172.2856365296557
 30
0.0
 11
205.1957456427294
 21
174.2856365287204
 31
0.0
  0
LINE
  8
ITEM_50
  5
1C7
 10
241.1957456427294
 20
174.2856365287203
 30
0.0
 11
241.1957456427294
 21
172.2856365296557
 31
0.0
  0
POINT
  8
ITEM_HILFE
  5
1C8
 10
168.19574564278
 20
137.785636530033
 30
0.0
  0
POINT
  8
ITEM_HILFE
  5
1C9
 10
128.19574564278
 20
137.785636530033
 30
0.0
  0
POINT
  8
ITEM_HILFE
  5
1CA
 10
108.1957456429753
 20
137.785636530033
 30
0.0
  0
POINT
  8
ITEM_HILFE
  5
1CB
 10
188.1957456428689
 20
137.785636530033
 30
0.0
  0
POINT
  8
ITEM_HILFE
  5
1CC
 10
148.19574564278
 20
137.785636530033
 30
0.0
  0
ARC
  8
ITEM_50
  5
1CD
 10
184.1957456428701
 20
141.7856365300312
 30
0.0
 40
4.0
 50
270.0
 51
359.9999999999989
  0
ARC
  8
ITEM_50
  5
1CE
 10
112.1957456429774
 20
141.7856365300307
 30
0.0
 40
4.0
 50
180.0000000000001
 51
270.0
  0
CIRCLE
  8
ITEM_50
  5
1CF
 10
163.1957456428801
 20
166.2856365299134
 30
0.0
 40
6.0
  0
LINE
  8
ITEM_50
  5
1D0
 10
108.1957456429783
 20
172.285636530114
 30
0.0
 11
108.1957456429774
 21
141.7856365300316
 31
0.0
  0
LINE
  8
ITEM_50
  5
1D1
 10
186.1957456429929
 20
172.2856365301144
 30
0.0
 11
186.1957456429919
 21
174.285636529179
 31
0.0
  0
LINE
  8
ITEM_50
  5
1D2
 10
110.1957456430538
 20
172.2856365301149
 30
0.0
 11
110.1957456430547
 21
174.2856365291785
 31
0.0
  0
LINE
  8
ITEM_50
  5
1D3
 10
188.1957456428701
 20
172.2856365301153
 30
0.0
 11
108.1957456429783
 21
172.285636530114
 31
0.0
  0
LINE
  8
ITEM_50
  5
1D4
 10
188.1957456428701
 20
141.7856365300307
 30
0.0
 11
188.1957456428701
 21
172.2856365301153
 31
0.0
  0
LINE
  8
ITEM_50
  5
1D5
 10
184.1957456428692
 20
137.7856365300307
 30
0.0
 11
112.1957456429774
 21
137.7856365300312
 31
0.0
  0
LINE
  8
ITEM_HILFE
  5
1D6
 10
148.1957456427788
 20
218.1556365300339
 30
0.0
 11
108.1957456426858
 21
218.1556365300356
 31
0.0
  0
LINE
  8
ITEM_HILFE
  5
1D7
 10
148.1957456427782
 20
222.655636530034
 30
0.0
 11
110.195745642566
 21
222.6556365300363
 31
0.0
  0
LINE
  8
ITEM_HILFE
  5
1D8
 10
168.565745642779
 20
197.7856365300338
 30
0.0
 11
168.5657456427786
 21
137.7856365300719
 31
0.0
  0
LINE
  8
ITEM_HILFE
  5
1D9
 10
173.065745642779
 20
197.7856365300337
 30
0.0
 11
173.0657456427786
 21
137.7856365300719
 31
0.0
  0
LINE
  8
ITEM_HILFE
  5
1DA
 10
127.825745642779
 20
197.7856365300326
 30
0.0
 11
127.8257456427828
 21
137.7856365300708
 31
0.0
  0
LINE
  8
ITEM_HILFE
  5
1DB
 10
123.3257456427789
 20
197.7856365300323
 30
0.0
 11
123.3257456427828
 21
137.7856365300705
 31
0.0
  0
LINE
  8
ITEM_STPG
  5
1DC
 10
148.1957456427782
 20
197.785636529993
 30
0.0
 11
191.5573457526604
 21
197.7856365299923
 31
0.0
  0
LINE
  8
ITEM_STPG
  5
1DD
 10
148.1957456427782
 20
197.785636529993
 30
0.0
 11
104.5073576872381
 21
197.7856365299943
 31
0.0
  0
CIRCLE
  8
ITEM_50
  5
1DE
 10
148.19574564278
 20
197.7856365299921
 30
0.0
 40
10.25
  0
ARC
  8
ITEM_25
  5
1DF
 10
172.4457456431284
 20
181.2856365305082
 30
0.0
 40
3.000000000000004
 50
50.99999999999926
 51
339.0
  0
CIRCLE
  8
ITEM_50
  5
1E0
 10
172.4457456431284
 20
181.2856365305082
 30
0.0
 40
2.46
  0
CIRCLE
  8
ITEM_50
  5
1E1
 10
172.4457456431275
 20
214.2856365290812
 30
0.0
 40
6.0
  0
CIRCLE
  8
ITEM_50
  5
1E2
 10
123.9457456429101
 20
181.2856365305078
 30
0.0
 40
6.0
  0
CIRCLE
  8
ITEM_50
  5
1E3
 10
116.1957456430711
 20
197.7856365299925
 30
0.0
 40
3.049999999999999
  0
CIRCLE
  8
ITEM_50
  5
1E4
 10
180.1957456430756
 20
197.7856365299925
 30
0.0
 40
3.049999999999999
  0
LINE
  8
ITEM_50
  5
1E5
 10
108.1957456429774
 20
221.2856365299157
 30
0.0
 11
108.1957456429783
 21
174.2856365291785
 31
0.0
  0
LINE
  8
ITEM_50
  5
1E6
 10
188.195745642871
 20
174.2856365291776
 30
0.0
 11
188.1957456428719
 21
221.2856365299139
 31
0.0
  0
CIRCLE
  8
ITEM_50
  5
1E7
 10
148.19574564278
 20
197.7856365299921
 30
0.0
 40
11.0
  0
LINE
  8
ITEM_50
  5
1E8
 10
108.1957456429783
 20
174.2856365291785
 30
0.0
 11
188.195745642871
 21
174.2856365291776
 31
0.0
  0
LINE
  8
ITEM_50
  5
1E9
 10
108.1957456429774
 20
221.2856365299157
 30
0.0
 11
188.1957456428701
 21
221.2856365299148
 31
0.0
  0
LINE
  8
ITEM_50
  5
1EA
 10
153.4872482646725
 20
199.2856365302622
 30
0.0
 11
155.0331428081855
 21
199.2856365302622
 31
0.0
  0
LINE
  8
ITEM_50
  5
1EB
 10
153.487248264849
 20
196.2856365302627
 30
0.0
 11
155.0331428083219
 21
196.2856365302627
 31
0.0
  0
ARC
  8
ITEM_50
  5
1EC
 10
148.1957456427773
 20
197.7856365299939
 30
0.0
 40
6.999999999898071
 50
347.6263748858785
 51
12.37362511865778
  0
LINE
  8
ITEM_50
  5
1ED
 10
149.5424588478164
 20
203.1182122248819
 30
0.0
 11
150.315406119572
 21
204.4569961711339
 31
0.0
  0
ARC
  8
ITEM_50
  5
1EE
 10
148.1957456427782
 20
197.7856365299925
 30
0.0
 40
6.999999999898071
 50
47.62637488587852
 51
72.37362511865778
  0
LINE
  8
ITEM_50
  5
1EF
 10
152.1405350592578
 20
201.6182122250328
 30
0.0
 11
152.9134823309943
 21
202.9569961712522
 31
0.0
  0
LINE
  8
ITEM_50
  5
1F0
 10
144.2509562259212
 20
201.6182122246131
 30
0.0
 11
143.4780089541656
 21
202.9569961708666
 31
0.0
  0
ARC
  8
ITEM_50
  5
1F1
 10
148.1957456427773
 20
197.7856365299948
 30
0.0
 40
6.999999999898071
 50
107.6263748858785
 51
132.3736251186577
  0
LINE
  8
ITEM_50
  5
1F2
 10
146.849032437187
 20
203.118212224765
 30
0.0
 11
146.0760851654505
 21
204.4569961709843
 31
0.0
  0
LINE
  8
ITEM_50
  5
1F3
 10
142.9042430208839
 20
196.2856365297261
 30
0.0
 11
141.3583484773709
 21
196.2856365297261
 31
0.0
  0
ARC
  8
ITEM_50
  5
1F4
 10
148.1957456427773
 20
197.7856365299939
 30
0.0
 40
6.999999999898071
 50
167.6263748858785
 51
192.3736251186577
  0
LINE
  8
ITEM_50
  5
1F5
 10
142.9042430207074
 20
199.2856365297261
 30
0.0
 11
141.3583484772345
 21
199.2856365297261
 31
0.0
  0
LINE
  8
ITEM_50
  5
1F6
 10
146.84903243774
 20
192.4530608351068
 30
0.0
 11
146.0760851659844
 21
191.1142768888543
 31
0.0
  0
ARC
  8
ITEM_50
  5
1F7
 10
148.1957456427773
 20
197.7856365299939
 30
0.0
 40
6.999999999898071
 50
227.6263748858785
 51
252.3736251186578
  0
LINE
  8
ITEM_50
  5
1F8
 10
144.2509562262986
 20
193.9530608349559
 30
0.0
 11
143.4780089545621
 21
192.6142768887365
 31
0.0
  0
LINE
  8
ITEM_50
  5
1F9
 10
152.1405350596352
 20
193.9530608353751
 30
0.0
 11
152.9134823313917
 21
192.614276889124
 31
0.0
  0
ARC
  8
ITEM_50
  5
1FA
 10
148.1957456427773
 20
197.7856365299948
 30
0.0
 40
6.999999999898071
 50
287.6263748858784
 51
312.3736251186577
  0
LINE
  8
ITEM_50
  5
1FB
 10
149.5424588483694
 20
192.4530608352233
 30
0.0
 11
150.3154061201068
 21
191.1142768890057
 31
0.0
  0
ARC
  8
ITEM_50
  5
1FC
 10
148.1957456427773
 20
197.7856365299939
 30
0.0
 40
5.499999999847904
 50
15.82662013523725
 51
44.17337987011207
  0
ARC
  8
ITEM_50
  5
1FD
 10
148.1957456427782
 20
197.7856365299925
 30
0.0
 40
5.499999999847904
 50
75.82662013523722
 51
104.173379870112
  0
ARC
  8
ITEM_50
  5
1FE
 10
148.1957456427773
 20
197.7856365299948
 30
0.0
 40
5.499999999847904
 50
135.8266201352372
 51
164.1733798701121
  0
ARC
  8
ITEM_50
  5
1FF
 10
148.1957456427773
 20
197.7856365299939
 30
0.0
 40
5.499999999847904
 50
195.8266201352372
 51
224.1733798701121
  0
ARC
  8
ITEM_50
  5
200
 10
148.1957456427773
 20
197.7856365299939
 30
0.0
 40
5.499999999847904
 50
255.8266201352372
 51
284.173379870112
  0
ARC
  8
ITEM_50
  5
201
 10
148.1957456427773
 20
197.7856365299948
 30
0.0
 40
5.499999999847904
 50
315.8266201352371
 51
344.173379870112
  0
POINT
  8
ITEM_HILFE
  5
202
 10
108.1957456429753
 20
177.7856365299942
 30
0.0
  0
POINT
  8
ITEM_HILFE
  5
203
 10
188.1957456428689
 20
177.7856365299924
 30
0.0
  0
POINT
  8
ITEM_HILFE
  5
204
 10
108.1957456429753
 20
217.7856365299942
 30
0.0
  0
POINT
  8
ITEM_HILFE
  5
205
 10
188.1957456428689
 20
217.7856365299924
 30
0.0
  0
POINT
  8
ITEM_HILFE
  5
206
 10
148.1957456427782
 20
197.785636529993
 30
0.0
  0
POINT
  8
ITEM_HILFE
  5
207
 10
108.1957456429753
 20
197.7856365299942
 30
0.0
  0
POINT
  8
ITEM_HILFE
  5
208
 10
188.1957456428689
 20
197.7856365299924
 30
0.0
  0
LINE
  8
ITEM_STPG
  5
209
 10
148.1957456427782
 20
197.785636529993
 30
0.0
 11
148.1957456427801
 21
135.4453084283868
 31
0.0
  0
LINE
  8
ITEM_STPG
  5
20A
 10
148.1957456427782
 20
197.785636529993
 30
0.0
 11
148.1957456427795
 21
241.6907471711738
 31
0.0
  0
LINE
  8
ITEM_50
  5
20B
 10
126.2551467196682
 20
181.2856365305078
 30
0.0
 11
125.1004461812892
 21
183.2856365305082
 31
0.0
  0
LINE
  8
ITEM_50
  5
20C
 10
125.1004461812892
 20
183.2856365305082
 30
0.0
 11
122.791045104531
 21
183.2856365305078
 31
0.0
  0
LINE
  8
ITEM_50
  5
20D
 10
122.791045104531
 20
183.2856365305078
 30
0.0
 11
121.6363445661519
 21
181.2856365305082
 31
0.0
  0
LINE
  8
ITEM_50
  5
20E
 10
121.6363445661519
 20
181.2856365305082
 30
0.0
 11
122.791045104531
 21
179.2856365305078
 31
0.0
  0
LINE
  8
ITEM_50
  5
20F
 10
122.791045104531
 20
179.2856365305078
 30
0.0
 11
125.1004461812892
 21
179.2856365305082
 31
0.0
  0
LINE
  8
ITEM_50
  5
210
 10
125.1004461812892
 20
179.2856365305082
 30
0.0
 11
126.2551467196682
 21
181.2856365305078
 31
0.0
  0
LINE
  8
ITEM_50
  5
211
 10
165.5051467196382
 20
166.285636529913
 30
0.0
 11
164.3504461812592
 21
168.285636529913
 31
0.0
  0
LINE
  8
ITEM_50
  5
212
 10
164.3504461812592
 20
168.285636529913
 30
0.0
 11
162.0410451045001
 21
168.285636529913
 31
0.0
  0
LINE
  8
ITEM_50
  5
213
 10
162.0410451045001
 20
168.285636529913
 30
0.0
 11
160.886344566121
 21
166.2856365299134
 31
0.0
  0
LINE
  8
ITEM_50
  5
214
 10
160.886344566121
 20
166.2856365299134
 30
0.0
 11
162.0410451045001
 21
164.285636529913
 31
0.0
  0
LINE
  8
ITEM_50
  5
215
 10
162.0410451045001
 20
164.285636529913
 30
0.0
 11
164.3504461812592
 21
164.2856365299134
 31
0.0
  0
LINE
  8
ITEM_50
  5
216
 10
164.3504461812592
 20
164.2856365299134
 30
0.0
 11
165.5051467196382
 21
166.285636529913
 31
0.0
  0
LINE
  8
ITEM_50
  5
217
 10
180.1957456430756
 20
203.5591392218888
 30
0.0
 11
175.1957456430756
 21
200.6723878759407
 31
0.0
  0
LINE
  8
ITEM_50
  5
218
 10
175.1957456430756
 20
200.6723878759407
 30
0.0
 11
175.1957456430756
 21
194.8988851840444
 31
0.0
  0
LINE
  8
ITEM_50
  5
219
 10
175.1957456430756
 20
194.8988851840444
 30
0.0
 11
180.1957456430756
 21
192.0121338380963
 31
0.0
  0
LINE
  8
ITEM_50
  5
21A
 10
180.1957456430756
 20
192.0121338380963
 30
0.0
 11
185.1957456430756
 21
194.8988851840444
 31
0.0
  0
LINE
  8
ITEM_50
  5
21B
 10
185.1957456430756
 20
194.8988851840444
 30
0.0
 11
185.1957456430756
 21
200.6723878759407
 31
0.0
  0
LINE
  8
ITEM_50
  5
21C
 10
185.1957456430756
 20
200.6723878759407
 30
0.0
 11
180.1957456430756
 21
203.5591392218888
 31
0.0
  0
LINE
  8
ITEM_50
  5
21D
 10
174.7551467198865
 20
214.2856365290812
 30
0.0
 11
173.6004461815074
 21
216.2856365290812
 31
0.0
  0
LINE
  8
ITEM_50
  5
21E
 10
173.6004461815074
 20
216.2856365290812
 30
0.0
 11
171.2910451047484
 21
216.2856365290812
 31
0.0
  0
LINE
  8
ITEM_50
  5
21F
 10
171.2910451047484
 20
216.2856365290812
 30
0.0
 11
170.1363445663693
 21
214.2856365290812
 31
0.0
  0
LINE
  8
ITEM_50
  5
220
 10
170.1363445663693
 20
214.2856365290812
 30
0.0
 11
171.2910451047484
 21
212.2856365290812
 31
0.0
  0
LINE
  8
ITEM_50
  5
221
 10
171.2910451047484
 20
212.2856365290812
 30
0.0
 11
173.6004461815074
 21
212.2856365290812
 31
0.0
  0
LINE
  8
ITEM_50
  5
222
 10
173.6004461815074
 20
212.2856365290812
 30
0.0
 11
174.7551467198865
 21
214.2856365290812
 31
0.0
  0
LINE
  8
ITEM_50
  5
223
 10
121.1957456430711
 20
200.6723878759407
 30
0.0
 11
116.1957456430711
 21
203.5591392218888
 31
0.0
  0
LINE
  8
ITEM_50
  5
224
 10
116.1957456430711
 20
203.5591392218888
 30
0.0
 11
111.1957456430711
 21
200.6723878759407
 31
0.0
  0
LINE
  8
ITEM_50
  5
225
 10
111.1957456430711
 20
200.6723878759407
 30
0.0
 11
111.1957456430711
 21
194.8988851840444
 31
0.0
  0
LINE
  8
ITEM_50
  5
226
 10
111.1957456430711
 20
194.8988851840444
 30
0.0
 11
116.1957456430711
 21
192.0121338380963
 31
0.0
  0
LINE
  8
ITEM_50
  5
227
 10
116.1957456430711
 20
192.0121338380963
 30
0.0
 11
121.1957456430711
 21
194.8988851840444
 31
0.0
  0
LINE
  8
ITEM_50
  5
228
 10
121.1957456430711
 20
194.8988851840444
 30
0.0
 11
121.1957456430711
 21
200.6723878759407
 31
0.0
  0
LINE
  8
ITEM_HILFE
  5
229
 10
148.195745642779
 20
218.1556365300339
 30
0.0
 11
188.1957456428718
 21
218.1556365300332
 31
0.0
  0
LINE
  8
ITEM_HILFE
  5
22A
 10
148.195745642779
 20
222.655636530034
 30
0.0
 11
186.1957456429919
 21
222.655636530034
 31
0.0
  0
ARC
  8
ITEM_HILFE
  5
22B
 10
148.1957456427789
 20
197.7856365300341
 30
0.0
 40
20.37
 50
89.99999999999762
 51
180.0000000000036
  0
ARC
  8
ITEM_HILFE
  5
22C
 10
148.195745642779
 20
197.7856365300341
 30
0.0
 40
24.87
 50
90.0
 51
180.0000000000036
  0
ARC
  8
ITEM_HILFE
  5
22D
 10
148.1957456427789
 20
197.7856365300341
 30
0.0
 40
20.37
 50
180.0000000000036
 51
269.9999999999972
  0
ARC
  8
ITEM_HILFE
  5
22E
 10
148.195745642779
 20
197.7856365300341
 30
0.0
 40
24.87
 50
180.0000000000036
 51
269.9999999999982
  0
LINE
  8
ITEM_HILFE
  5
22F
 10
148.1957456427782
 20
177.4156365300339
 30
0.0
 11
188.1957456428712
 21
177.4156365300335
 31
0.0
  0
LINE
  8
ITEM_HILFE
  5
230
 10
148.1957456427782
 20
172.9156365300339
 30
0.0
 11
186.1957456429912
 21
172.9156365300327
 31
0.0
  0
LINE
  8
ITEM_HILFE
  5
231
 10
148.1957456427782
 20
222.655636530034
 30
0.0
 11
110.195745642566
 21
222.6556365300363
 31
0.0
  0
ARC
  8
ITEM_HILFE
  5
232
 10
148.195745642779
 20
197.7856365300341
 30
0.0
 40
20.37
 50
359.9999999999996
 51
89.99999999999765
  0
ARC
  8
ITEM_HILFE
  5
233
 10
148.195745642779
 20
197.7856365300341
 30
0.0
 40
24.87
 50
359.9999999999996
 51
90.0
  0
ARC
  8
ITEM_HILFE
  5
234
 10
148.195745642779
 20
197.7856365300341
 30
0.0
 40
20.37
 50
269.9999999999976
 51
359.9999999999996
  0
ARC
  8
ITEM_HILFE
  5
235
 10
148.195745642779
 20
197.7856365300341
 30
0.0
 40
24.87
 50
270.0
 51
359.9999999999996
  0
LINE
  8
ITEM_HILFE
  5
236
 10
148.195745642777
 20
177.4156365300339
 30
0.0
 11
108.195745642684
 21
177.4156365300358
 31
0.0
  0
LINE
  8
ITEM_HILFE
  5
237
 10
148.1957456427767
 20
172.9156365300339
 30
0.0
 11
110.1957456425637
 21
172.915636530035
 31
0.0
  0
LINE
  8
ITEM_50
  5
238
 10
184.195745642871
 20
237.785636529862
 30
0.0
 11
112.1957456429774
 21
237.7856365298638
 31
0.0
  0
LINE
  8
ITEM_50
  5
239
 10
108.1957456429765
 20
233.7856365298638
 30
0.0
 11
108.1957456429774
 21
223.2856365301817
 31
0.0
  0
LINE
  8
ITEM_50
  5
23A
 10
188.195745642871
 20
223.2856365301822
 30
0.0
 11
108.1957456429774
 21
223.2856365301817
 31
0.0
  0
LINE
  8
ITEM_50
  5
23B
 10
186.1957456429919
 20
221.2856365299134
 30
0.0
 11
186.1957456429919
 21
223.2856365301817
 31
0.0
  0
LINE
  8
ITEM_50
  5
23C
 10
110.1957456430538
 20
221.2856365299157
 30
0.0
 11
110.1957456430547
 21
223.2856365301813
 31
0.0
  0
LINE
  8
ITEM_50
  5
23D
 10
188.195745642871
 20
223.2856365301822
 30
0.0
 11
188.1957456428701
 21
233.7856365298643
 31
0.0
  0
CIRCLE
  8
ITEM_50
  5
23E
 10
148.1957456427791
 20
229.7856365292545
 30
0.0
 40
5.0
  0
ARC
  8
ITEM_50
  5
23F
 10
184.195745642871
 20
233.7856365298625
 30
0.0
 40
4.0
 50
0.0000000000008778
 51
90.0
  0
ARC
  8
ITEM_50
  5
240
 10
112.1957456429774
 20
233.7856365298629
 30
0.0
 40
4.0
 50
90.00000000000009
 51
180.0
  0
POINT
  8
ITEM_HILFE
  5
241
 10
148.1957456427794
 20
237.7856365298658
 30
0.0
  0
POINT
  8
ITEM_HILFE
  5
242
 10
108.1957456429753
 20
237.7856365298658
 30
0.0
  0
POINT
  8
ITEM_HILFE
  5
243
 10
188.195745642869
 20
237.7856365298658
 30
0.0
  0
LINE
  8
ITEM_50
  5
244
 10
151.0824969887273
 20
234.7856365292545
 30
0.0
 11
145.308994296831
 21
234.7856365292545
 31
0.0
  0
LINE
  8
ITEM_50
  5
245
 10
145.308994296831
 20
234.7856365292545
 30
0.0
 11
142.4222429508828
 21
229.7856365292545
 31
0.0
  0
LINE
  8
ITEM_50
  5
246
 10
142.4222429508828
 20
229.7856365292545
 30
0.0
 11
145.308994296831
 21
224.7856365292549
 31
0.0
  0
LINE
  8
ITEM_50
  5
247
 10
145.308994296831
 20
224.7856365292549
 30
0.0
 11
151.0824969887273
 21
224.7856365292549
 31
0.0
  0
LINE
  8
ITEM_50
  5
248
 10
151.0824969887273
 20
224.7856365292549
 30
0.0
 11
153.9692483346754
 21
229.7856365292545
 31
0.0
  0
LINE
  8
ITEM_50
  5
249
 10
153.9692483346754
 20
229.7856365292545
 30
0.0
 11
151.0824969887273
 21
234.7856365292545
 31
0.0
  0
LINE
  8
ITEM_50
  5
24A
 10
151.0824969887273
 20
229.7856365292545
 30
0.0
 11
149.6391213157532
 21
232.2856365292545
 31
0.0
  0
LINE
  8
ITEM_50
  5
24B
 10
149.6391213157532
 20
232.2856365292545
 30
0.0
 11
146.7523699698051
 21
232.2856365292545
 31
0.0
  0
LINE
  8
ITEM_50
  5
24C
 10
146.7523699698051
 20
232.2856365292545
 30
0.0
 11
145.308994296831
 21
229.7856365292545
 31
0.0
  0
LINE
  8
ITEM_50
  5
24D
 10
145.308994296831
 20
229.7856365292545
 30
0.0
 11
146.7523699698051
 21
227.2856365292545
 31
0.0
  0
LINE
  8
ITEM_50
  5
24E
 10
146.7523699698051
 20
227.2856365292545
 30
0.0
 11
149.6391213157532
 21
227.2856365292545
 31
0.0
  0
LINE
  8
ITEM_50
  5
24F
 10
149.6391213157532
 20
227.2856365292545
 30
0.0
 11
151.0824969887273
 21
229.7856365292545
 31
0.0
  0
ENDBLK
  8
0
  5
250
  0
BLOCK
  8
0
  5
251
  2
X0038870
 70
    64
 10
0.0
 20
0.0
 30
0.0
  3
X0038870
  0
LINE
  8
ITEM_50
  5
252
 10
88.06119973975975
 20
283.5333695656838
 30
0.0
 11
88.06119973975975
 21
203.5333695656838
 31
0.0
  0
LINE
  8
ITEM_50
  5
253
 10
113.0611997397597
 20
283.5333695656838
 30
0.0
 11
113.0611997397597
 21
203.5333695656838
 31
0.0
  0
LINE
  8
ITEM_50
  5
254
 10
88.06119973975975
 20
283.5333695656838
 30
0.0
 11
113.0611997397597
 21
283.5333695656838
 31
0.0
  0
LINE
  8
ITEM_50
  5
255
 10
88.06119973975975
 20
203.5333695656838
 30
0.0
 11
113.0611997397597
 21
203.5333695656838
 31
0.0
  0
LINE
  8
ITEM_50
  5
256
 10
123.5611997397597
 20
258.5333695656838
 30
0.0
 11
123.5611997397597
 21
228.5333695656838
 31
0.0
  0
LINE
  8
ITEM_STPG
  5
257
 10
81.26344943416555
 20
243.5333695656838
 30
0.0
 11
129.1185650684294
 21
243.5333695656838
 31
0.0
  0
LINE
  8
ITEM_50
  5
258
 10
113.0611997397597
 20
258.5333695656838
 30
0.0
 11
123.5611997397597
 21
258.5333695656838
 31
0.0
  0
LINE
  8
ITEM_50
  5
259
 10
113.0611997397597
 20
228.5333695656838
 30
0.0
 11
123.5611997397597
 21
228.5333695656838
 31
0.0
  0
LINE
  8
ITEM_50
  5
25A
 10
88.06119973975975
 20
172.1871116933395
 30
0.0
 11
88.06119973975975
 21
140.1871116933395
 31
0.0
  0
LINE
  8
ITEM_50
  5
25B
 10
113.0611997397597
 20
172.1871116933395
 30
0.0
 11
113.0611997397597
 21
140.1871116933395
 31
0.0
  0
LINE
  8
ITEM_50
  5
25C
 10
113.0611997397597
 20
140.1871116933395
 30
0.0
 11
88.06119973975975
 21
140.1871116933395
 31
0.0
  0
LINE
  8
ITEM_50
  5
25D
 10
113.0611997397597
 20
172.1871116933395
 30
0.0
 11
88.06119973975975
 21
172.1871116933395
 31
0.0
  0
LINE
  8
ITEM_50
  5
25E
 10
117.7611997397597
 20
164.6871116933395
 30
0.0
 11
117.7611997397597
 21
160.0871116933395
 31
0.0
  0
LINE
  8
ITEM_50
  5
25F
 10
119.0611997397597
 20
164.6871116933395
 30
0.0
 11
117.7611997397597
 21
164.6871116933395
 31
0.0
  0
LINE
  8
ITEM_50
  5
260
 10
119.0611997397597
 20
164.6871116933395
 30
0.0
 11
123.5611997397597
 21
160.1871116933395
 31
0.0
  0
LINE
  8
ITEM_50
  5
261
 10
113.0611997397597
 20
160.0871116933395
 30
0.0
 11
117.7611997397597
 21
160.0871116933395
 31
0.0
  0
LINE
  8
ITEM_50
  5
262
 10
113.0611997397597
 20
152.2871116933395
 30
0.0
 11
117.7611997397597
 21
152.2871116933395
 31
0.0
  0
LINE
  8
ITEM_50
  5
263
 10
119.0611997397597
 20
147.6871116933395
 30
0.0
 11
123.5611997397597
 21
152.1871116933395
 31
0.0
  0
LINE
  8
ITEM_50
  5
264
 10
119.0611997397597
 20
147.6871116933395
 30
0.0
 11
117.7611997397597
 21
147.6871116933395
 31
0.0
  0
LINE
  8
ITEM_50
  5
265
 10
117.7611997397597
 20
147.6871116933395
 30
0.0
 11
117.7611997397597
 21
152.2871116933395
 31
0.0
  0
LINE
  8
ITEM_50
  5
266
 10
123.5611997397597
 20
152.1871116933395
 30
0.0
 11
123.5611997397597
 21
160.1871116933394
 31
0.0
  0
LINE
  8
ITEM_50
  5
267
 10
110.0611997397597
 20
169.1871116933395
 30
0.0
 11
110.0611997397597
 21
143.1871116933395
 31
0.0
  0
LINE
  8
ITEM_50
  5
268
 10
107.0611997397597
 20
169.1871116933395
 30
0.0
 11
107.0611997397597
 21
143.1871116933395
 31
0.0
  0
LINE
  8
ITEM_50
  5
269
 10
88.06119973975975
 20
156.1871116933395
 30
0.0
 11
123.5611997397597
 21
156.1871116933395
 31
0.0
  0
LINE
  8
ITEM_50
  5
26A
 10
107.0611997397597
 20
169.1871116933395
 30
0.0
 11
113.0611997397597
 21
169.1871116933395
 31
0.0
  0
LINE
  8
ITEM_50
  5
26B
 10
107.0611997397597
 20
143.1871116933395
 30
0.0
 11
113.0611997397597
 21
143.1871116933395
 31
0.0
  0
LINE
  8
ITEM_50
  5
26C
 10
117.7611997397597
 20
228.5333695656838
 30
0.0
 11
117.7611997397597
 21
258.5333695656838
 31
0.0
  0
LINE
  8
ITEM_50
  5
26D
 10
119.0611997397597
 20
228.5333695656838
 30
0.0
 11
119.0611997397597
 21
258.5333695656838
 31
0.0
  0
LINE
  8
ITEM_STPG
  5
26E
 10
88.24383836844945
 20
273.5333695656838
 30
0.0
 11
104.8867066325792
 21
273.5333695656838
 31
0.0
  0
LINE
  8
ITEM_STPG
  5
26F
 10
105.1831237931874
 20
213.5333695656838
 30
0.0
 11
88.81561700239119
 21
213.5333695656838
 31
0.0
  0
LINE
  8
ITEM_50
  5
270
 10
107.215900278139
 20
245.5333695656838
 30
0.0
 11
104.9064992013804
 21
245.5333695656838
 31
0.0
  0
LINE
  8
ITEM_50
  5
271
 10
108.3706008165182
 20
243.5333695656838
 30
0.0
 11
107.215900278139
 21
245.5333695656838
 31
0.0
  0
LINE
  8
ITEM_50
  5
272
 10
107.2159002781389
 20
241.5333695656838
 30
0.0
 11
108.3706008165182
 21
243.5333695656838
 31
0.0
  0
LINE
  8
ITEM_50
  5
273
 10
104.9064992013804
 20
241.5333695656838
 30
0.0
 11
107.2159002781389
 21
241.5333695656838
 31
0.0
  0
LINE
  8
ITEM_50
  5
274
 10
103.7517986630012
 20
243.5333695656838
 30
0.0
 11
104.9064992013804
 21
241.5333695656838
 31
0.0
  0
LINE
  8
ITEM_50
  5
275
 10
104.9064992013804
 20
245.5333695656838
 30
0.0
 11
103.7517986630012
 21
243.5333695656838
 31
0.0
  0
CIRCLE
  8
ITEM_50
  5
276
 10
106.0611997397597
 20
243.5333695656838
 30
0.0
 40
2.5
  0
CIRCLE
  8
ITEM_50
  5
277
 10
106.0611997397597
 20
243.5333695656838
 30
0.0
 40
5.25
  0
LINE
  8
ITEM_STP
  5
278
 10
106.0611997397597
 20
243.5333695656838
 30
0.0
 11
112.9822946184169
 21
243.5333695656838
 31
0.0
  0
LINE
  8
ITEM_STP
  5
279
 10
106.0611997397597
 20
243.5333695656838
 30
0.0
 11
106.0611997397597
 21
250.454464444341
 31
0.0
  0
LINE
  8
ITEM_STP
  5
27A
 10
106.0611997397597
 20
243.5333695656838
 30
0.0
 11
99.14010486110258
 21
243.5333695656838
 31
0.0
  0
LINE
  8
ITEM_STP
  5
27B
 10
106.0611997397597
 20
243.5333695656838
 30
0.0
 11
106.0611997397597
 21
236.6122746870267
 31
0.0
  0
LINE
  8
ITEM_50
  5
27C
 10
97.71590027813903
 20
275.5333695656838
 30
0.0
 11
95.40649920138051
 21
275.5333695656838
 31
0.0
  0
LINE
  8
ITEM_50
  5
27D
 10
98.87060081651827
 20
273.5333695656838
 30
0.0
 11
97.71590027813903
 21
275.5333695656838
 31
0.0
  0
LINE
  8
ITEM_50
  5
27E
 10
97.715900278139
 20
271.5333695656838
 30
0.0
 11
98.87060081651827
 21
273.5333695656838
 31
0.0
  0
LINE
  8
ITEM_50
  5
27F
 10
95.40649920138051
 20
271.5333695656838
 30
0.0
 11
97.715900278139
 21
271.5333695656838
 31
0.0
  0
LINE
  8
ITEM_50
  5
280
 10
94.25179866300123
 20
273.5333695656838
 30
0.0
 11
95.40649920138051
 21
271.5333695656838
 31
0.0
  0
LINE
  8
ITEM_50
  5
281
 10
95.40649920138051
 20
275.5333695656838
 30
0.0
 11
94.25179866300123
 21
273.5333695656838
 31
0.0
  0
CIRCLE
  8
ITEM_50
  5
282
 10
96.56119973975975
 20
273.5333695656838
 30
0.0
 40
2.5
  0
CIRCLE
  8
ITEM_50
  5
283
 10
96.56119973975975
 20
273.5333695656838
 30
0.0
 40
5.25
  0
LINE
  8
ITEM_STP
  5
284
 10
96.56119973975975
 20
273.5333695656838
 30
0.0
 11
103.4822946184169
 21
273.5333695656838
 31
0.0
  0
LINE
  8
ITEM_STP
  5
285
 10
96.56119973975975
 20
273.5333695656838
 30
0.0
 11
96.56119973975975
 21
280.454464444341
 31
0.0
  0
LINE
  8
ITEM_STP
  5
286
 10
96.56119973975975
 20
273.5333695656838
 30
0.0
 11
89.64010486110259
 21
273.5333695656838
 31
0.0
  0
LINE
  8
ITEM_STP
  5
287
 10
96.56119973975975
 20
273.5333695656838
 30
0.0
 11
96.56119973975975
 21
266.6122746870266
 31
0.0
  0
LINE
  8
ITEM_50
  5
288
 10
97.71590027813901
 20
215.5333695656838
 30
0.0
 11
95.40649920138049
 21
215.5333695656838
 31
0.0
  0
LINE
  8
ITEM_50
  5
289
 10
98.87060081651826
 20
213.5333695656838
 30
0.0
 11
97.71590027813901
 21
215.5333695656838
 31
0.0
  0
LINE
  8
ITEM_50
  5
28A
 10
97.71590027813898
 20
211.5333695656838
 30
0.0
 11
98.87060081651826
 21
213.5333695656838
 31
0.0
  0
LINE
  8
ITEM_50
  5
28B
 10
95.40649920138049
 20
211.5333695656838
 30
0.0
 11
97.71590027813898
 21
211.5333695656838
 31
0.0
  0
LINE
  8
ITEM_50
  5
28C
 10
94.25179866300122
 20
213.5333695656838
 30
0.0
 11
95.40649920138049
 21
211.5333695656838
 31
0.0
  0
LINE
  8
ITEM_50
  5
28D
 10
95.40649920138049
 20
215.5333695656838
 30
0.0
 11
94.25179866300122
 21
213.5333695656838
 31
0.0
  0
CIRCLE
  8
ITEM_50
  5
28E
 10
96.56119973975974
 20
213.5333695656838
 30
0.0
 40
2.5
  0
CIRCLE
  8
ITEM_50
  5
28F
 10
96.56119973975974
 20
213.5333695656838
 30
0.0
 40
5.25
  0
LINE
  8
ITEM_STP
  5
290
 10
96.56119973975974
 20
213.5333695656838
 30
0.0
 11
103.4822946184169
 21
213.5333695656838
 31
0.0
  0
LINE
  8
ITEM_STP
  5
291
 10
96.56119973975974
 20
213.5333695656838
 30
0.0
 11
96.56119973975974
 21
220.454464444341
 31
0.0
  0
LINE
  8
ITEM_STP
  5
292
 10
96.56119973975974
 20
213.5333695656838
 30
0.0
 11
89.64010486110258
 21
213.5333695656838
 31
0.0
  0
LINE
  8
ITEM_STP
  5
293
 10
96.56119973975974
 20
213.5333695656838
 30
0.0
 11
96.56119973975974
 21
206.6122746870267
 31
0.0
  0
ENDBLK
  8
0
  5
294
  0
BLOCK
  8
0
  5
295
  2
02683V1
 70
    64
 10
0.0
 20
0.0
 30
0.0
  3
02683V1
  0
LINE
  8
ITEM_STP
  5
296
 10
0.0
 20
13.00000000000295
 30
0.0
 11
0.0
 21
-9.860646492602199
 31
0.0
  0
LINE
  8
ITEM_STP
  5
297
 10
0.0
 20
13.00000000000295
 30
0.0
 11
-22.86064649260538
 21
13.00000000000295
 31
0.0
  0
LINE
  8
ITEM_STP
  5
298
 10
0.0
 20
13.00000000000295
 30
0.0
 11
0.0
 21
35.86064649260811
 31
0.0
  0
LINE
  8
ITEM_STP
  5
299
 10
0.0
 20
13.00000000000295
 30
0.0
 11
22.86064649260526
 21
13.00000000000295
 31
0.0
  0
CIRCLE
  8
ITEM_50
  5
29A
 10
0.0
 20
13.00000000000295
 30
0.0
 40
3.0
  0
CIRCLE
  8
ITEM_50
  5
29B
 10
0.0
 20
13.00000000000295
 30
0.0
 40
8.5
  0
ARC
  8
ITEM_50
  5
29C
 10
0.0
 20
13.00000000000295
 30
0.0
 40
19.55
 50
41.67938234308173
 51
221.6793823430816
  0
CIRCLE
  8
0
  5
29D
 10
0.0000000000001137
 20
13.00000000000295
 30
0.0
 40
13.0
  0
ARC
  8
ITEM_GSTRG
  5
29E
 10
-0.0000000000001137
 20
13.00000000000272
 30
0.0
 40
19.55
 50
221.6793823430817
 51
318.3206176569419
  0
ARC
  8
ITEM_50
  5
29F
 10
-0.0000000000001137
 20
13.00000000000272
 30
0.0
 40
19.55
 50
318.3206176569419
 51
41.6793823430817
  0
ENDBLK
  8
0
  5
2A0
  0
BLOCK
  8
0
  5
2A1
  2
02683D1
 70
    64
 10
0.0
 20
0.0
 30
0.0
  3
02683D1
  0
LINE
  8
ITEM_STP
  5
2A2
 10
0.0
 20
21.81206805649497
 30
0.0
 11
0.0
 21
-21.94065069786725
 31
0.0
  0
LINE
  8
ITEM_STP
  5
2A3
 10
12.99999999999991
 20
0.0000000000000284
 30
0.0
 11
-15.00000000000008
 21
0.0000000000000284
 31
0.0
  0
ARC
  8
ITEM_50
  5
2A4
 10
-4.999999999999971
 20
-13.99999999999997
 30
0.0
 40
1.0
 50
0.000000000000007
 51
90.00000000000001
  0
ARC
  8
ITEM_50
  5
2A5
 10
-4.999999999999971
 20
14.00000000000002
 30
0.0
 40
1.0
 50
270.0000000000001
 51
0.000000000000007
  0
ARC
  8
ITEM_50
  5
2A6
 10
5.000000000000028
 20
14.00000000000002
 30
0.0
 40
1.0
 50
180.0000000000001
 51
270.0
  0
ARC
  8
ITEM_50
  5
2A7
 10
5.000000000000028
 20
-13.99999999999997
 30
0.0
 40
1.0
 50
90.00000000000001
 51
180.0
  0
LINE
  8
ITEM_50
  5
2A8
 10
8.000000000000028
 20
13.00000000000002
 30
0.0
 11
5.000000000000028
 21
13.00000000000002
 31
0.0
  0
LINE
  8
ITEM_50
  5
2A9
 10
8.000000000000028
 20
-12.99999999999997
 30
0.0
 11
8.000000000000028
 21
13.00000000000002
 31
0.0
  0
LINE
  8
ITEM_50
  5
2AA
 10
5.000000000000028
 20
-12.99999999999997
 30
0.0
 11
8.000000000000028
 21
-12.99999999999997
 31
0.0
  0
LINE
  8
ITEM_50
  5
2AB
 10
-9.999999999999971
 20
13.00000000000002
 30
0.0
 11
-4.999999999999971
 21
13.00000000000002
 31
0.0
  0
LINE
  8
ITEM_50
  5
2AC
 10
-9.999999999999971
 20
-12.99999999999997
 30
0.0
 11
-9.999999999999971
 21
13.00000000000002
 31
0.0
  0
LINE
  8
ITEM_50
  5
2AD
 10
-4.999999999999971
 20
-12.99999999999997
 30
0.0
 11
-9.999999999999971
 21
-12.99999999999997
 31
0.0
  0
LINE
  8
ITEM_50
  5
2AE
 10
-3.999999999999971
 20
19.75000000000002
 30
0.0
 11
-3.999999999999971
 21
-19.74999999999997
 31
0.0
  0
LINE
  8
ITEM_50
  5
2AF
 10
4.000000000000028
 20
19.75000000000002
 30
0.0
 11
-3.999999999999971
 21
19.75000000000002
 31
0.0
  0
LINE
  8
ITEM_50
  5
2B0
 10
4.000000000000028
 20
-19.74999999999997
 30
0.0
 11
4.000000000000028
 21
19.75000000000002
 31
0.0
  0
LINE
  8
ITEM_50
  5
2B1
 10
-3.999999999999971
 20
-19.74999999999997
 30
0.0
 11
4.000000000000028
 21
-19.74999999999997
 31
0.0
  0
LINE
  8
ITEM_GSTRG
  5
2B2
 10
8.000000000000028
 20
-2.999999999999971
 30
0.0
 11
-9.999999999999971
 21
-2.999999999999971
 31
0.0
  0
LINE
  8
ITEM_GSTRG
  5
2B3
 10
8.000000000000028
 20
3.000000000000028
 30
0.0
 11
-9.999999999999971
 21
3.000000000000028
 31
0.0
  0
ENDBLK
  8
0
  5
2B4
  0
ENDSEC
  0
SECTION
  2
ENTITIES
  0
INSERT
  8
ITEM_50
  5
47
  2
92063008561189
 10
127.5505269773201
 20
231.8023508844797
 30
0.0
  0
INSERT
  8
ITEM_50
  5
48
 66
     1
  2
MB-INFO
 10
131.0860608832529
 20
235.3378847904124
 30
0.0
  0
ATTRIB
  8
ITEM_INFO
  5
49
 10
134.8368979230442
 20
233.3027055129632
 30
0.0
 40
3.5
  1
Profil 160x40, natur
  2
MB-BEZ1
 70
     1
  0
ATTRIB
  8
ITEM_INFO
  5
4A
 10
134.8368979230442
 20
227.4693721796299
 30
0.0
 40
3.5
  1

  2
MB-BEZ2
 70
     1
  0
ATTRIB
  8
ITEM_INFO
  5
4B
 10
134.8368979230442
 20
221.6360388462965
 30
0.0
 40
3.5
  1
item GmbH
  2
MB-LIE1
 70
     1
  0
ATTRIB
  8
ITEM_INFO
  5
4C
 10
134.8368979230442
 20
215.8027055129632
 30
0.0
 40
3.5
  1

  2
MB-LIE2
 70
     1
  0
ATTRIB
  8
ITEM_INFO
  5
4D
 10
134.8368979230442
 20
209.9693721796299
 30
0.0
 40
3.5
  1
AlMgSi0,5F (eloxiert)
  2
MB-MAT1
 70
     1
  0
ATTRIB
  8
ITEM_INFO
  5
4E
 10
134.8368979230442
 20
204.1360388462965
 30
0.0
 40
3.5
  1

  2
MB-MAT2
 70
     1
  0
ATTRIB
  8
ITEM_INFO
  5
4F
 10
134.8509586208435
 20
198.1441316282275
 30
0.0
 40
3.5
  1
88.000000000000000
  2
MB-LAE
 70
     1
  0
ATTRIB
  8
ITEM_INFO
  5
50
 10
134.8509586208435
 20
192.3107982948941
 30
0.0
 40
3.5
  1
0.0
  2
MB-BRE
 70
     1
  0
ATTRIB
  8
ITEM_INFO
  5
51
 10
134.8509586208435
 20
186.4774649615608
 30
0.0
 40
3.5
  1
2652300000
  2
MB-NR
 70
     1
  0
SEQEND
  8
ITEM_50
  5
52
  0
INSERT
  8
ITEM_50
  5
59
  2
92063008562985
 10
125.9709538878177
 20
95.95906518727184
 30
0.0
  0
INSERT
  8
ITEM_50
  5
5A
 66
     1
  2
MB-INFO
 10
129.5064877937505
 20
99.49459909320458
 30
0.0
  0
ATTRIB
  8
ITEM_INFO
  5
5B
 10
133.2573248335417
 20
97.45941981575536
 30
0.0
 40
3.5
  1
Profil 160x40, natur
  2
MB-BEZ1
 70
     1
  0
ATTRIB
  8
ITEM_INFO
  5
5C
 10
133.2573248335417
 20
91.62608648242202
 30
0.0
 40
3.5
  1

  2
MB-BEZ2
 70
     1
  0
ATTRIB
  8
ITEM_INFO
  5
5D
 10
133.2573248335417
 20
85.79275314908869
 30
0.0
 40
3.5
  1
item GmbH
  2
MB-LIE1
 70
     1
  0
ATTRIB
  8
ITEM_INFO
  5
5E
 10
133.2573248335417
 20
79.95941981575536
 30
0.0
 40
3.5
  1

  2
MB-LIE2
 70
     1
  0
ATTRIB
  8
ITEM_INFO
  5
5F
 10
133.2573248335417
 20
74.12608648242203
 30
0.0
 40
3.5
  1
AlMgSi0,5F (eloxiert)
  2
MB-MAT1
 70
     1
  0
ATTRIB
  8
ITEM_INFO
  5
60
 10
133.2573248335417
 20
68.29275314908869
 30
0.0
 40
3.5
  1

  2
MB-MAT2
 70
     1
  0
ATTRIB
  8
ITEM_INFO
  5
61
 10
133.2713855313411
 20
62.30084593101964
 30
0.0
 40
3.5
  1
88.000000000000000
  2
MB-LAE
 70
     1
  0
ATTRIB
  8
ITEM_INFO
  5
62
 10
133.2713855313411
 20
56.4675125976863
 30
0.0
 40
3.5
  1
0.0
  2
MB-BRE
 70
     1
  0
ATTRIB
  8
ITEM_INFO
  5
63
 10
133.2713855313411
 20
50.63417926435297
 30
0.0
 40
3.5
  1
2652300000
  2
MB-NR
 70
     1
  0
SEQEND
  8
ITEM_50
  5
64
  0
INSERT
  8
0
  5
65
  2
X0019674
 10
319.0737640794882
 20
256.6806270441427
 30
0.0
  0
INSERT
  8
0
  5
67
 66
     1
  2
MB-INFO
 10
129.5304259646425
 20
321.782249871802
 30
0.0
  0
ATTRIB
  8
ITEM_INFO
  5
68
 10
133.2812630044337
 20
319.7470705943528
 30
0.0
 40
3.5
  1
Abdeckkappe 160x28
  2
MB-BEZ1
 70
     1
  0
ATTRIB
  8
ITEM_INFO
  5
69
 10
133.2812630044337
 20
313.9137372610194
 30
0.0
 40
3.5
  1

  2
MB-BEZ2
 70
     1
  0
ATTRIB
  8
ITEM_INFO
  5
6A
 10
133.2812630044337
 20
308.0804039276861
 30
0.0
 40
3.5
  1
item GmbH
  2
MB-LIE1
 70
     1
  0
ATTRIB
  8
ITEM_INFO
  5
6B
 10
133.2812630044337
 20
302.2470705943528
 30
0.0
 40
3.5
  1

  2
MB-LIE2
 70
     1
  0
ATTRIB
  8
ITEM_INFO
  5
6C
 10
133.2812630044337
 20
296.4137372610194
 30
0.0
 40
3.5
  1
PA-GF, schwarz
  2
MB-MAT1
 70
     1
  0
ATTRIB
  8
ITEM_INFO
  5
6D
 10
133.2812630044337
 20
290.5804039276861
 30
0.0
 40
3.5
  1

  2
MB-MAT2
 70
     1
  0
ATTRIB
  8
ITEM_INFO
  5
6E
 10
133.2953237022331
 20
284.5884967096171
 30
0.0
 40
3.5
  1
0.0
  2
MB-LAE
 70
     1
  0
ATTRIB
  8
ITEM_INFO
  5
6F
 10
133.2953237022331
 20
278.7551633762837
 30
0.0
 40
3.5
  1
0.0
  2
MB-BRE
 70
     1
  0
ATTRIB
  8
ITEM_INFO
  5
70
 10
133.2953237022331
 20
272.9218300429504
 30
0.0
 40
3.5
  1
268000000
  2
MB-NR
 70
     1
  0
SEQEND
  8
0
  5
71
  0
INSERT
  8
0
  5
72
  2
02680V1
 10
126.7607404325689
 20
185.9947312889096
 30
0.0
  0
INSERT
  8
0
  5
73
 66
     1
  2
MB-INFO
 10
62.76074043256897
 20
185.9947312889096
 30
0.0
  0
ATTRIB
  8
ITEM_INFO
  5
74
 10
66.51157747236024
 20
183.9595520114604
 30
0.0
 40
3.5
  1
Abdeckkappe 160x28
  2
MB-BEZ1
 70
     1
  0
ATTRIB
  8
ITEM_INFO
  5
75
 10
66.51157747236024
 20
178.126218678127
 30
0.0
 40
3.5
  1

  2
MB-BEZ2
 70
     1
  0
ATTRIB
  8
ITEM_INFO
  5
76
 10
66.51157747236024
 20
172.2928853447937
 30
0.0
 40
3.5
  1
item GmbH
  2
MB-LIE1
 70
     1
  0
ATTRIB
  8
ITEM_INFO
  5
77
 10
66.51157747236024
 20
166.4595520114604
 30
0.0
 40
3.5
  1

  2
MB-LIE2
 70
     1
  0
ATTRIB
  8
ITEM_INFO
  5
78
 10
66.51157747236024
 20
160.626218678127
 30
0.0
 40
3.5
  1
PA-GF, schwarz
  2
MB-MAT1
 70
     1
  0
ATTRIB
  8
ITEM_INFO
  5
79
 10
66.51157747236024
 20
154.7928853447937
 30
0.0
 40
3.5
  1

  2
MB-MAT2
 70
     1
  0
ATTRIB
  8
ITEM_INFO
  5
7A
 10
66.52563817015956
 20
148.8009781267246
 30
0.0
 40
3.5
  1
0.0
  2
MB-LAE
 70
     1
  0
ATTRIB
  8
ITEM_INFO
  5
7B
 10
66.52563817015956
 20
142.9676447933913
 30
0.0
 40
3.5
  1
0.0
  2
MB-BRE
 70
     1
  0
ATTRIB
  8
ITEM_INFO
  5
7C
 10
66.52563817015956
 20
137.134311460058
 30
0.0
 40
3.5
  1
268000000
  2
MB-NR
 70
     1
  0
SEQEND
  8
0
  5
7D
  0
INSERT
  8
0
  5
7E
  2
X0033726
 10
98.72331809390108
 20
353.8243720485414
 30
0.0
  0
INSERT
  8
0
  5
7F
  2
X0038870
 10
500.9744364185054
 20
288.9178118206282
 30
0.0
  0
POLYLINE
  8
ITEM_50
  5
80
 66
     1
 10
0.0
 20
0.0
 30
0.0
 70
     1
  0
VERTEX
  8
ITEM_50
  5
81
 10
285.5505269773202
 20
323.8023508844796
 30
0.0
 42
-0.414213562373095
  0
VERTEX
  8
ITEM_50
  5
82
 10
287.5505269773202
 20
321.8023508844796
 30
0.0
  0
VERTEX
  8
ITEM_50
  5
83
 10
287.5505269773202
 20
319.8023508844796
 30
0.0
  0
VERTEX
  8
ITEM_50
  5
84
 10
127.5505269773201
 20
319.8023508844797
 30
0.0
  0
VERTEX
  8
ITEM_50
  5
85
 10
127.5505269773201
 20
321.8023508844797
 30
0.0
 42
-0.4142135623730951
  0
VERTEX
  8
ITEM_50
  5
86
 10
129.5505269773202
 20
323.8023508844797
 30
0.0
  0
SEQEND
  8
ITEM_50
  5
87
  0
POLYLINE
  8
ITEM_50
  5
88
 66
     1
 10
0.0
 20
0.0
 30
0.0
 70
     1
  0
VERTEX
  8
ITEM_50
  5
89
 10
285.5505269773202
 20
227.8023508844797
 30
0.0
 42
0.414213562373095
  0
VERTEX
  8
ITEM_50
  5
8A
 10
287.5505269773202
 20
229.8023508844797
 30
0.0
  0
VERTEX
  8
ITEM_50
  5
8B
 10
287.5505269773202
 20
231.8023508844797
 30
0.0
  0
VERTEX
  8
ITEM_50
  5
8C
 10
127.5505269773201
 20
231.8023508844797
 30
0.0
  0
VERTEX
  8
ITEM_50
  5
8D
 10
127.5505269773201
 20
229.8023508844797
 30
0.0
 42
0.4142135623730951
  0
VERTEX
  8
ITEM_50
  5
8E
 10
129.5505269773202
 20
227.8023508844797
 30
0.0
  0
SEQEND
  8
ITEM_50
  5
8F
  0
INSERT
  8
0
  5
90
 66
     1
  2
MB-INFO
 10
129.5304259646425
 20
229.8224518971574
 30
0.0
 41
-1.0
 50
180.0
  0
ATTRIB
  8
ITEM_INFO
  5
91
 10
133.2812630044337
 20
229.3451639830055
 30
0.0
 40
3.5
  1
Abdeckkappe 160x28
  2
MB-BEZ1
 70
     1
  0
ATTRIB
  8
ITEM_INFO
  5
92
 10
133.2812630044337
 20
237.6909645079399
 30
0.0
 40
3.5
  1

  2
MB-BEZ2
 70
     1
  0
ATTRIB
  8
ITEM_INFO
  5
93
 10
133.2812630044337
 20
240.0242978412733
 30
0.0
 40
3.5
  1
item GmbH
  2
MB-LIE1
 70
     1
  0
ATTRIB
  8
ITEM_INFO
  5
94
 10
133.2812630044337
 20
249.3576311746066
 30
0.0
 40
3.5
  1

  2
MB-LIE2
 70
     1
  0
ATTRIB
  8
ITEM_INFO
  5
95
 10
133.2812630044337
 20
252.5021036781282
 30
0.0
 40
3.5
  1
PA-GF, schwarz
  2
MB-MAT1
 70
     1
  0
ATTRIB
  8
ITEM_INFO
  5
96
 10
133.2812630044337
 20
261.0242978412732
 30
0.0
 40
3.5
  1

  2
MB-MAT2
 70
     1
  0
ATTRIB
  8
ITEM_INFO
  5
97
 10
133.2953237022331
 20
263.5146740007246
 30
0.0
 40
3.5
  1
0.0
  2
MB-LAE
 70
     1
  0
ATTRIB
  8
ITEM_INFO
  5
98
 10
133.2953237022331
 20
269.348007334058
 30
0.0
 40
3.5
  1
0.0
  2
MB-BRE
 70
     1
  0
ATTRIB
  8
ITEM_INFO
  5
99
 10
133.2953237022331
 20
275.0037378677412
 30
0.0
 40
3.5
  1
268000000
  2
MB-NR
 70
     1
  0
SEQEND
  8
0
  5
9A
  0
INSERT
  8
0
  5
9B
  2
02683V1
 10
183.6521045272343
 20
135.9590651872718
 30
0.0
  0
INSERT
  8
0
  5
9C
 66
     1
  2
MB-INFO
 10
187.8782871446413
 20
145.0221430576383
 30
0.0
  0
ATTRIB
  8
ITEM_INFO
  5
9D
 10
191.6291241844326
 20
142.9869637801891
 30
0.0
 40
3.5
  1
Rolle PA
  2
MB-BEZ1
 70
     1
  0
ATTRIB
  8
ITEM_INFO
  5
9E
 10
191.6291241844326
 20
137.1536304468558
 30
0.0
 40
3.5
  1

  2
MB-BEZ2
 70
     1
  0
ATTRIB
  8
ITEM_INFO
  5
9F
 10
191.6291241844326
 20
131.3202971135224
 30
0.0
 40
3.5
  1
item GmbH
  2
MB-LIE1
 70
     1
  0
ATTRIB
  8
ITEM_INFO
  5
A0
 10
191.6291241844326
 20
125.4869637801891
 30
0.0
 40
3.5
  1

  2
MB-LIE2
 70
     1
  0
ATTRIB
  8
ITEM_INFO
  5
A1
 10
191.6291241844326
 20
119.6536304468558
 30
0.0
 40
3.5
  1
PA-GF, schwarz
  2
MB-MAT1
 70
     1
  0
ATTRIB
  8
ITEM_INFO
  5
A2
 10
191.6291241844326
 20
113.8202971135224
 30
0.0
 40
3.5
  1

  2
MB-MAT2
 70
     1
  0
ATTRIB
  8
ITEM_INFO
  5
A3
 10
191.6431848822319
 20
107.8283898954533
 30
0.0
 40
3.5
  1
0.0
  2
MB-LAE
 70
     1
  0
ATTRIB
  8
ITEM_INFO
  5
A4
 10
191.6431848822319
 20
101.99505656212
 30
0.0
 40
3.5
  1
0.0
  2
MB-BRE
 70
     1
  0
ATTRIB
  8
ITEM_INFO
  5
A5
 10
191.6431848822319
 20
96.16172322878674
 30
0.0
 40
3.5
  1
268300000
  2
MB-NR
 70
     1
  0
SEQEND
  8
0
  5
A6
  0
INSERT
  8
0
  5
A7
  2
02683D1
 10
187.5558941990074
 20
115.9590651872718
 30
0.0
 50
90.0
  0
INSERT
  8
0
  5
A8
 66
     1
  2
MB-INFO
 10
187.5558941990074
 20
115.9590651872718
 30
0.0
  0
ATTRIB
  8
ITEM_INFO
  5
A9
 10
191.3067312387987
 20
113.9238859098226
 30
0.0
 40
3.5
  1
Rolle PA
  2
MB-BEZ1
 70
     1
  0
ATTRIB
  8
ITEM_INFO
  5
AA
 10
191.3067312387987
 20
108.0905525764892
 30
0.0
 40
3.5
  1

  2
MB-BEZ2
 70
     1
  0
ATTRIB
  8
ITEM_INFO
  5
AB
 10
191.3067312387987
 20
102.2572192431559
 30
0.0
 40
3.5
  1
item GmbH
  2
MB-LIE1
 70
     1
  0
ATTRIB
  8
ITEM_INFO
  5
AC
 10
191.3067312387987
 20
96.42388590982263
 30
0.0
 40
3.5
  1

  2
MB-LIE2
 70
     1
  0
ATTRIB
  8
ITEM_INFO
  5
AD
 10
191.3067312387987
 20
90.5905525764893
 30
0.0
 40
3.5
  1
PA-GF, schwarz
  2
MB-MAT1
 70
     1
  0
ATTRIB
  8
ITEM_INFO
  5
AE
 10
191.3067312387987
 20
84.75721924315595
 30
0.0
 40
3.5
  1

  2
MB-MAT2
 70
     1
  0
ATTRIB
  8
ITEM_INFO
  5
AF
 10
191.320791936598
 20
78.76531202508689
 30
0.0
 40
3.5
  1
0.0
  2
MB-LAE
 70
     1
  0
ATTRIB
  8
ITEM_INFO
  5
B0
 10
191.320791936598
 20
72.93197869175357
 30
0.0
 40
3.5
  1
0.0
  2
MB-BRE
 70
     1
  0
ATTRIB
  8
ITEM_INFO
  5
B1
 10
191.320791936598
 20
67.09864535842024
 30
0.0
 40
3.5
  1
268300000
  2
MB-NR
 70
     1
  0
SEQEND
  8
0
  5
B2
  0
ENDSEC
  0
EOF
